» » »

Yano - Senti Tabs

Artists:  A B C D E F G H I J K L M N O P Q R S T U V W X Y Z # 

Senti Tabs

(ver. 5) Click to play this song!
Yano
 Rating:
4.3/5 (19 votes)

 Senti lessons Tabs too difficult? Try these video lessons and learn fast
 
                [Intro]

e|----------------0--------------0---------------------|
B|----------0--------------3---------------------------|
G|--------2-----2--------2-----2-----------------------|
D|------2-----2--------4-----4-------------------------|
A|----0--------------0---------------------------------|
E|-----------------------------------------------------|


[Solo]

e|-----------------------------------------------------|
B|----------2--3---------------------------------------|
G|----2-2-4--------------------------------------------|
D|-----------------------------------------------------|
A|-----------------------------------------------------|
E|-----------------------------------------------------|

e|-----------------------------------------------------|
B|----------3-2----------------------------------------|
G|----2-2-4-----2--------------------------------------|
D|-----------------------------------------------------|
A|-----------------------------------------------------|
E|-----------------------------------------------------|

e|-----------------------------------------------------|
B|--------3-2-3-5--------------------------------------|
G|----2-4----------------------------------------------|
D|-----------------------------------------------------|
A|-----------------------------------------------------|
E|-----------------------------------------------------|

e|-----------------------------------------------------|
B|----5-5-3-2------------------------------------------|
G|-----------------------------------------------------|
D|-----------------------------------------------------|
A|-----------------------------------------------------|
E|-----------------------------------------------------|

e|-----------------------------------------------------|
B|----3---3-2------------------------------------------|
G|------4----------------------------------------------|
D|-----------------------------------------------------|
A|-----------------------------------------------------|
E|-----------------------------------------------------|

e|-----------------------------------------------------|
B|----------2---2--------------------------------------|
G|----2-2-4---2---2-2----------------------------------|
D|-----------------------------------------------------|
A|-----------------------------------------------------|
E|-----------------------------------------------------|

e|-----------------------------------------------------|
B|--------3-2-3-5--------------------------------------|
G|----2-4----------------------------------------------|
D|-----------------------------------------------------|
A|-----------------------------------------------------|
E|-----------------------------------------------------|

e|-----------------------------------------------------|
B|--------3-2-3-5--------------------------------------|
G|----2-4----------------------------------------------|
D|-----------------------------------------------------|
A|-----------------------------------------------------|
E|-----------------------------------------------------|

e|----5-4h5p4------------------------------------------|
B|------------5--3-2-----------------------------------|
G|-----------------------------------------------------|
D|-----------------------------------------------------|
A|-----------------------------------------------------|
E|-----------------------------------------------------|
            
Submit corrections


        Senti lessons Hard to play? Try these video lessons and learn fast Senti lessons
        
↑ Back to top | Tablatures and chords for acoustic guitar and electric guitar, ukulele, drums are parodies/interpretations of the original songs. You may use it for private study, scholarship, research or language learning purposes only