Home » X » XXXTENTACION »

XXXTENTACION - Never Tabs

Artists:  A B C D E F G H I J K L M N O P Q R S T U V W X Y Z # 

Never Tabs

(ver. 1) Click to play this song!
XXXTENTACION
[Intro]
 
e|-----------------------------|
B|-----------------------------|
G|---1---1-------1---1---------|
D|--2---2---2---2---2---2------|
A|-4---4---4---4---4---4-------|
E|-----------------------------|
 
e|-----------------------------|
B|-----------------------------|
G|---1---1-------1---1---------|
D|--2---2---2---2---2---2------|
A|-2---2---2---2---2---2-------|
E|-----------------------------|
 
e|-----------------------------|
B|-----------------------------|
G|---1---1-------1---1---------|
D|--2---2---2---2---2---2------|
A|-0---0---0---0---0---0-------|
E|-----------------------------|
 
e|-----------------------------|
B|-----------------------------|
G|---1---1-------1---1---------|
D|--2---2---2---2---2---2------|
A|-2---2---2---2---2---2-------|
E|-----------------------------|
 
 
[Chords]
 
e|-----------------------------|
B|-----------------------------|
G|-----------------------------|
D|-2---2---2---2--2---2---2--2-|
A|-4---4---4---4--4---4---4--4-|
E|-4---4---4---4--4---4---4--4-|
 
e|-----------------------------|
B|-----------------------------|
G|-----------------------------|
D|-2---2---2---2--2---2---2--2-|
A|-2---2---2---2--2---2---2--2-|
E|-4---4---4---4--4---4---4--4-|
 
e|-----------------------------|
B|-----------------------------|
G|-----------------------------|
D|-2---2---2---2--2---2---2--2-|
A|-4---4---4---4--4---4---4--4-|
E|-5---5---5---5--5---5---5--5-|
 
e|-----------------------------|
B|-----------------------------|
G|-----------------------------|
D|-4---4---4---4--4---4---4--4-|
A|-6---6---6---6--6---6---6--6-|
E|-7---7---7---7--7---7---7--7-|
            
Submit corrections

↑ Back to top | Tablatures and chords for acoustic guitar and electric guitar, ukulele, drums are parodies/interpretations of the original songs. You may use it for private study, scholarship, research or language learning purposes only