» » »

XXXTENTACION - In The End Tabs

Artists:  A B C D E F G H I J K L M N O P Q R S T U V W X Y Z # 

In The End Tabs

(ver. 1) Click to play this song!
XXXTENTACION
 Rating:
4.3/5 (10 votes)

 In The End lessons Tabs too difficult? Try these video lessons and learn fast
 
                [Intro]

e|2---2---2---2----6-2---6-2---6-2---6-----6-----6-----6-----6-----6-----6-----6-----6----|
B|---------------------2-----2-----4---7-----7-----7-----7-----7-----7-----7-----7-----7--|
G|---------------------------------------8-----6-----6-----8-----8-----6-----6-----8-----8| 
D|----------------------------------------------------------------------------------------|
A|----------------------------------------------------------------------------------------|
E|----------------------------------------------------------------------------------------|


[Verse]

e|6-----6-----6----.6-----6-----6-----6-----6-----6-----6-----6--.-6----------------------|
B|--7-----7-----7-----7-----7-----7-----7-----7-----7-----7-----7----7--------------------|
G|----6-----6-----6-----6-----6-----6-----8-----8-----6-----6-----8----8------------------|
D|----------------------------------------------------------------------------------------|
A|----------------------------------------------------------------------------------------|
E|----------------------------------------------------------------------------------------|

e|6-----6-----6-----6-----6-----6-----6-----.-6-----6-----6-----6-----6-------------------|
B|--7-----7-----7-----7-----7-----7-----7-------7-----7-----7-----7-----7-----------------|
G|----6-----6-----8-----8-----6-----6-----6-------6-----6-----6-----8-----8---------------|
D|----------------------------------------------------------------------------------------|
A|----------------------------------------------------------------------------------------|
E|----------------------------------------------------------------------------------------|

e|6-----6-----6---.-6-----6-----6-----6-----6-----6-----6--------------7--6---------------|
B|--7-----7-----7-----7-----7-----7-----7-----7-----7-----7--------7----------------------|
G|----6-----6-----8-----8-----6-----6-----8-----8-----6-----6-----------------------------|
D|----------------------------------------------------------------------------------------|
A|----------------------------------------------------------------------------------------|
E|----------------------------------------------------------------------------------------|

e|----7--6------7--6----4----2--7-6------7--6------7--6----14--19--18------19--18---------|
B|7---------7-------------------------7---------7----------------------19-----------------|
G|----------------------------------------------------------------------------------------|
D|----------------------------------------------------------------------------------------|
A|----------------------------------------------------------------------------------------|
E|----------------------------------------------------------------------------------------|

e|----19--18--16--14--19--18------19--18------19--18--------------------------------------|
B|19--------------------------19----------19----------------------------------------------|
G|----------------------------------------------------------------------------------------|
D|----------------------------------------------------------------------------------------|
A|----------------------------------------------------------------------------------------|
E|----------------------------------------------------------------------------------------|

            
Submit corrections


        In The End lessons Hard to play? Try these video lessons and learn fast In The End lessons
        
↑ Back to top | Tablatures and chords for acoustic guitar and electric guitar, ukulele, drums are parodies/interpretations of the original songs. You may use it for private study, scholarship, research or language learning purposes only