Home » X » XXXTENTACION »

XXXTENTACION - Alone Part 3 Tabs

Artists:  A B C D E F G H I J K L M N O P Q R S T U V W X Y Z # 

Alone Part 3 Tabs

(ver. 1) Click to play this song!
XXXTENTACION
[Intro]
e|---------------------------------|
B|---1-0-----1-0-----1-0-----1-0---|
G|-2-------2-------2-------2-------|
D|---------------------------------|
A|---------------------------------|
E|---------------------------------|

e|---------------------------------|
B|---1-0-----1-0-----1-0-----1-0---|
G|-0-------0-------0-------0-------|
D|---------------------------------|
A|---------------------------------|
E|---------------------------------|

e|---------------------------------|
B|---1-0-----1-0-----1-0-----1-0---|
G|---------------------------------|
D|-2-------2-------2-------2-------|
A|---------------------------------|
E|---------------------------------|

e|---------------------------------|
B|---1-0-----1-0-----1-0-----1-0---|
G|---------------------------------|
D|---------------------------------|
A|-2-------2-------2-------2-------|
E|---------------------------------|
            
Submit corrections

↑ Back to top | Tablatures and chords for acoustic guitar and electric guitar, ukulele, drums are parodies/interpretations of the original songs. You may use it for private study, scholarship, research or language learning purposes only