Home » X » X Japan »

X Japan - Tears Tabs

Artists:  A B C D E F G H I J K L M N O P Q R S T U V W X Y Z # 

Tears Tabs

(ver. 1) Click to play this song!
X Japan
                            Tears (Classic Guitar)                              


                                                                         X Japan
Trilha 1



     Q    Q    Q    Q       Q    Q    Q    Q       Q    Q    Q    Q     
E||------------2---------|-------0---------0----|------------2---------|
B||-------3---------3----|----------------------|-------2---------2----|
G||--2-------------------|--2---------1---------|--2-------------------|
D||----------------------|----------------------|--0-------------------|
A||--2--------------L----|--4--------------L----|-----------------L----|
E||----------------------|----------------------|----------------------|


  Q    Q    Q    Q       Q    Q    Q    Q       Q    Q    Q    Q     
--5--------------2----|--5-------------------|--5---------4----L----|
----------------------|--3-------------------|--5-------------------|
------------2---------|------------2---------|-------4--------------|
-------4--------------|-------4---------4----|----------------------|
-----------------L----|--2--------------L----|--4--------------L----|
----------------------|----------------------|----------------------|


  Q    Q    Q    Q       Q    Q    H            Q    Q     Q    Q     
--5-------------------|------------7--------|---9--------------------|
--7---------7---------|------------9--------|--10---------10---------|
-------7---------7----|---------------------|--------9----------9----|
--0--------------L----|---------------------|------------------------|
----------------------|------------L--------|---0---------------L----|
----------------------|--0---------L--------|------------------------|


  Q    Q     Q    E  E     Q    Q    Q    Q       Q    Q    Q    Q     
------------------7--5--|--7-------------------|----------------------|
------------10----------|--9-------------------|----------------------|
-------9----------------|------------9---------|------------9---------|
------------------------|-------9---------9----|-------9---------9----|
--0---------------L-----|----------------------|----------------------|
------------------------|--0--------------L----|--0--------------L----|


  Q    Q    Q    Q       Q    Q    Q    Q       Q    Q    Q    Q     
--5--------------2----|--4----2----4----L----|--5-------------------|
------------2---------|----------------------|--7---------7---------|
-------2--------------|----------------------|-------6---------6----|
----------------------|----------------------|--0--------------L----|
----------------------|----------------------|----------------------|
--2--------------L----|--0--------------L----|----------------------|


  Q    Q    Q    Q       Q    Q    Q    Q       Q    Q    Q    E  E   
------------7----L----|--5-------------------|-----------------4--2--|
------------7----L----|--5---------5---------|------------5----------|
-------6--------------|-------4---------4----|-------4---------------|
--0--------------L----|----------------------|-----------------------|
----------------------|----------------------|-----------------------|
----------------------|--0--------------L----|--0-----------------L--|


  Q    Q    Q    Q        Q    Q    Q    E  E     Q    Q    Q    Q     
--4--------------L----|--12----L---------------|----------------------|
--5--------------L----|--12---------2----0--2--|----------------------|
----------------------|------------------------|------------2---------|
----------------------|------------------------|-------2---------2----|
----------------------|------------------------|--0--------------L----|
--0--------------L----|------------------------|----------------------|


  Q    Q    Q    E  E     Q    Q    Q    Q       Q    Q    Q    Q     
-------0----2----4--5--|--L-------------------|----------------------|
-----------------------|-------2---------L----|-----------------2----|
-----------------------|----------------------|------------2---------|
-----------------------|----------------------|-------2--------------|
-----------------------|----------------------|----------------------|
--4-----------------L--|--2---------L----2----|--0--------------L----|


  Q    Q    Q    Q       Q    Q    Q    E  E     Q    Q    Q    Q     
----------------------|-----------------------|----------------------|
--7----L----7----L----|--5----0----2----3--2--|--L-------------------|
--6--------------L----|--4--------------------|--L---------2---------|
--0--------------L----|--0--------------------|--L----2---------2----|
----------------------|-----------------------|--0--------------L----|
----------------------|-----------------------|----------------------|


  Q    Q    Q    E  E     Q    Q    Q    Q       Q    Q    Q    Q     
--0----L---------------|----------------------|-------0----2----4----|
--2----L----2----0--2--|----------------------|----------------------|
-----------------------|------------2---------|----------------------|
-----------------------|-------2---------2----|----------------------|
-----------------------|--0--------------L----|----------------------|
-----------------------|----------------------|--4--------------L----|


  Q    Q    Q    Q       Q    Q    Q    Q       Q    Q    Q    Q     
--5--------------7----|--5--------------2----|--5----L----5----L----|
------------2---------|------------2---------|--7-------------------|
-------2--------------|-------2--------------|----------------------|
----------------------|----------------------|--0--------------L----|
----------------------|----------------------|----------------------|
--2--------------L----|--0--------------L----|----------------------|


  Q    Q    Q    Q       Q    Q    Q    Q       Q    Q    Q    Q     
--4----2----4----L----|--5-------------------|------------0----L----|
----------------------|------------3---------|--2---------0----L----|
----------------------|------------2---------|--2----L--------------|
----------------------|-------2---------2----|-------L--------------|
----------------------|--0-------------------|--0-------------------|
--0--------------L----|-----------------L----|-------L----4----L----|


  Q    Q    Q    E  E     Q    Q    Q    E  E     Q    Q    Q    Q     
------------5----4--5--|--L----4----2----------|----------------------|
-------2---------------|-----------------2--5--|----------------------|
-----------------------|-----------------------|------------6---------|
-----------------------|-----------------------|-------6---------6----|
-----------------------|-----------------------|--4-------------------|
--2-----------------L--|--L--------------------|----------------------|


  Q    Q    Q    Q       Q    Q    Q    E  E     Q    Q    E  Q    E   
----------------------|-------2----2----0--2--|--L----2----2--0-------|
--5-------------------|-------2------------L--|--L--------------------|
------------6---------|-------2------------L--|--L-----------------2--|
-------6---------6----|--0-----------------L--|--------------------L--|
-----------------L----|-----------------------|-----------------------|
----------------------|-----------------------|-----------------------|


  Q    Q    Q    Q       Q    Q    Q    Q       Q    Q    Q    E  E   
----------------------|--0----L--------------|------------5----4--5--|
--0-------------------|------------0----L----|-------2---------------|
------------1---------|------------1----L----|-----------------------|
-------2---------2----|----------------------|-----------------------|
----------------------|----------------------|-----------------------|
--0--------------L----|------------1----L----|--2-----------------L--|


  Q    Q    Q    Q       Q.     Q.     Q       Q    Q    Q    E  E   
--L----5----4----5----|--7------4-----------|-----------------------|
----------------------|--5-------------5----|--L----5----5----5--7--|
----------------------|---------------------|-----------------------|
----------------------|---------------------|-----------------------|
----------------------|--4-------------L----|--------------------L--|
--L-------------------|---------------------|-----------------------|


  Q    Q    Q    Q       Q.     Q    E  Q       Q    Q    Q    Q     
-----------------2----|--2------4----5--7----|----------------------|
------------2---------|--2-----------7--9----|----------------------|
-------2--------------|--2-------------------|------------9---------|
--0-------------------|--0-------------------|-------9---------9----|
-----------------L----|----------------------|----------------------|
----------------------|----------------------|--0--------------L----|


   Q    Q    Q    Q       Q    Q    Q    E  E     Q    Q    Q    E  E   
--12--------------L----|-----------------------|------------0----2-----|
--12--------------L----|-------2----2----0--2--|-------2------------2--|
-----------------------|-----------------------|-----------------------|
-----------------------|-----------------------|-----------------------|
-----------------------|--0--------------L-----|-----------------------|
-----------------------|-----------------------|--4-----------------L--|


  Q    Q    Q    Q       Q    Q    Q    Q       Q    Q    Q    E  E   
----------------------|----------------------|-----------------------|
--L-------------------|----------------------|-------3----3----2--3--|
-----------------2----|----------------------|-----------------------|
------------4---------|------------2----6----|--0-----------------L--|
-------4--------------|-------4--------------|-----------------------|
--2--------------L----|--0--------------L----|-----------------------|


  Q    Q    Q    Q       Q    Q    Q    E  E     Q    Q    Q    Q     
----------------------|-----------------------|------------0---------|
-------2----0---------|--2---------L----0--0--|-----------------3----|
-----------------2----|-------L----1----------|----------------------|
----------------------|-------2---------------|-------2--------------|
--2--------------L----|-----------------------|----------------------|
----------------------|--0-----------------L--|--0--------------L----|


  Q    Q    Q    E  E     Q    Q    Q    E  E     Q    Q    Q    Q     
-----------------------|------------0----2-----|----------------------|
-------2----2----0--2--|-------2------------2--|--L-------------------|
-----------------------|-----------------------|-----------------2----|
-----------------------|-----------------------|------------4---------|
--0--------------L-----|-----------------------|-------4--------------|
-----------------------|--4-----------------L--|--2--------------L----|


  Q    Q    Q    Q       Q    Q    Q    E  E     Q    Q    Q    E  E   
----------------------|-----------------------|------------0----2--4--|
----------------------|-------3----3----2--3--|-------3---------------|
----------------------|-----------------------|-----------------------|
------------2----6----|--0-----------------L--|-----------------------|
-------4--------------|-----------------------|--2-----------------L--|
--0--------------L----|-----------------------|-----------------------|


  Q    Q    Q    Q       Q    Q    Q    Q       Q    Q    Q    Q     
--L-------------------|--5----L----4----L----|--5-------------------|
-----------------0----|--L---------5----L----|--7---------7---------|
------------1---------|----------------------|--6----6---------6----|
-------2--------------|----------------------|--0--------------L----|
----------------------|----------------------|----------------------|
--0--------------L----|-----------------L----|----------------------|


  Q    Q    Q.     E     Q    Q    Q    Q       Q    Q    Q    Q     
------------4------5--|--L-------------------|--5----L----4----L----|
------------0------2--|--L---------2----L----|------------5----L----|
----------------------|-------2---------2----|----------------------|
----------------------|----------------------|----------------------|
----------------------|----------------------|----------------------|
--0---------L---------|--2--------------L----|-----------------L----|


  Q    Q    Q    Q       Q    Q    Q.     E     Q    Q    Q    Q     
--5-------------------|------------4------5--|------------L---------|
--7---------7---------|------------5------3--|------------L----3----|
--6----6---------6----|----------------------|------------2---------|
--0--------------L----|----------------------|-------4--------------|
----------------------|----------------------|--2--------------L----|
----------------------|--0---------L---------|----------------------|


  Q    Q    Q    Q       Q    Q    Q    Q       Q    Q    Q    Q     
----------------------|----------------------|--5-------------------|
-----------------5----|-----------------7----|-----------------7----|
------------4---------|------------6---------|------------6---------|
-------6--------------|-------7--------------|-------7--------------|
--4--------------L----|--5--------------L----|-----------------L----|
----------------------|----------------------|----------------------|


  Q    Q    Q    Q       Q    Q    Q    Q       Q    Q    Q    Q     
--5-------------------|--5---------4----L----|--5-------------------|
--3-------------------|--5-------------------|--7---------7---------|
------------2---------|-------4--------------|-------7---------7----|
-------4---------4----|----------------------|--0--------------L----|
--2--------------L----|--4--------------L----|----------------------|
----------------------|----------------------|----------------------|


  Q    Q    Q    Q       Q    Q    Q    Q       Q    Q    Q    Q     
------------5---------|--0----L----0----L----|--0----L----0----L----|
-------7---------7----|--0----L----0----L----|--0----L----0----L----|
--6--------------L----|--2----L----2----L----|--2----L----2----L----|
--0--------------L----|-------2----L----2----|--L----2----L----2----|
----------------------|----------------------|----------------------|
----------------------|--0-------------------|-----------------L----|


  Q    Q    Q    Q        Q    Q    Q    E  E     Q    Q    Q    Q     
--0--------------L----|--12----L---------------|----------------------|
--0--------------0----|--12---------2----0--2--|----------------------|
--1---------1---------|------------------------|------------2---------|
-------2--------------|------------------------|-------2---------2----|
----------------------|------------------------|--0--------------L----|
--0--------------L----|------------------------|----------------------|


  Q    Q    Q    E  E     Q    Q    Q    Q       Q    Q    Q    Q     
-------0----2----4--5--|--L-------------------|----------------------|
-----------------------|-------2---------L----|-----------------2----|
-----------------------|----------------------|------------2---------|
-----------------------|----------------------|-------2--------------|
-----------------------|----------------------|----------------------|
--4-----------------L--|--2---------L----2----|--0--------------L----|


  Q    Q    Q    Q       Q    Q    Q    E  E     Q    Q    Q    Q     
----------------------|-----------------------|----------------------|
--7----L----7----L----|--5----0----2----3--2--|--L-------------------|
--6--------------L----|--4--------------------|--L---------2---------|
--0--------------L----|--0--------------------|--L----2---------2----|
----------------------|-----------------------|--0--------------L----|
----------------------|-----------------------|----------------------|


  Q    Q    Q    E  E     Q    Q    Q    Q       Q    Q    Q    Q     
--0----L---------------|----------------------|-------0----2----4----|
--2----L----2----0--2--|----------------------|----------------------|
-----------------------|------------2---------|----------------------|
-----------------------|-------2---------2----|----------------------|
-----------------------|--0--------------L----|----------------------|
-----------------------|----------------------|--4--------------L----|


  Q    Q    Q    Q       Q    Q    Q    Q       Q    Q    Q    Q     
--5--------------7----|--5--------------2----|--5----L----5----L----|
------------2---------|------------2---------|--7-------------------|
-------2--------------|-------2--------------|----------------------|
----------------------|----------------------|--0--------------L----|
----------------------|----------------------|----------------------|
--2--------------L----|--0--------------L----|----------------------|


  Q    Q    Q    Q       Q    Q    Q    Q       Q    Q    Q    Q     
--4----2----4----L----|--5-------------------|------------0----L----|
----------------------|------------3---------|--2---------0----L----|
----------------------|------------2---------|--2----L--------------|
----------------------|-------2---------2----|-------L--------------|
----------------------|--0-------------------|--0-------------------|
--0--------------L----|-----------------L----|-------L----4----L----|


  Q    Q    Q    E  E     Q    Q    Q    E  E     Q    Q    Q    Q     
------------5----4--5--|--L----4----2----------|----------------------|
-------2---------------|-----------------2--5--|----------------------|
-----------------------|-----------------------|------------6---------|
-----------------------|-----------------------|-------6---------6----|
-----------------------|-----------------------|--4-------------------|
--2-----------------L--|--L--------------------|----------------------|


  Q    Q    Q    Q       Q    Q    Q    E  E     Q    Q    E  Q    E   
----------------------|-------2----2----0--2--|--L----2----2--0-------|
--5-------------------|-------2------------L--|--L--------------------|
------------6---------|-------2------------L--|--L-----------------2--|
-------6---------6----|--0-----------------L--|--------------------L--|
-----------------L----|-----------------------|-----------------------|
----------------------|-----------------------|-----------------------|


  Q    Q    Q    Q       Q    Q    Q    Q       Q    Q    Q    E  E   
----------------------|--0----L--------------|------------5----4--5--|
--0-------------------|------------0----L----|-------2---------------|
------------1---------|------------1----L----|-----------------------|
-------2---------2----|----------------------|-----------------------|
----------------------|----------------------|-----------------------|
--0--------------L----|------------1----L----|--2-----------------L--|


  Q    Q    Q    Q       Q.     Q.     Q       Q    Q    Q    E  E   
--L----5----4----5----|--7------4-----------|-----------------------|
----------------------|--5-------------5----|--L----5----5----5--7--|
----------------------|---------------------|-----------------------|
----------------------|---------------------|-----------------------|
----------------------|--4-------------L----|--------------------L--|
--L-------------------|---------------------|-----------------------|


  Q    Q    Q    Q       Q.     Q    E  Q       Q    Q    Q    Q     
-----------------2----|--2------4----5--7----|----------------------|
------------2---------|--2-----------7--9----|----------------------|
-------2--------------|--2-------------------|------------9---------|
--0-------------------|--0-------------------|-------9---------9----|
-----------------L----|----------------------|----------------------|
----------------------|----------------------|--0--------------L----|


   Q    Q    Q    Q       Q    Q    Q    Q       Q    Q    Q    Q     
--12--------------L----|----------------------|----------------------|
--12--------------L----|--0---------0---------|--1---------3---------|
------------------1----|--0---------0---------|--2---------4---------|
-------------2---------|-------0---------0----|-------0---------0----|
--------2--------------|----------------------|----------------------|
-----------------------|--3---------3---------|--3---------3---------|


  Q    Q    Q    E  E     Q    Q    Q    E  E     Q    Q    Q    Q     
-------0----0-------0--|-------0----3----5--0--|----------------------|
-------1---------3-----|-----------------------|-----------------1----|
-------0---------------|-----------------------|------------2---------|
-----------------------|-----------------------|-------2--------------|
--3-----------------L--|--2-----------------L--|--0--------------L----|
-----------------------|-----------------------|----------------------|


  Q    Q    Q    Q       Q    Q    Q    E  E     Q    Q    Q    Q     
----------------------|-------1----1----0--1--|-------0--------------|
-----------------1----|-------1------------L--|------------3----1----|
------------0---------|-------2------------L--|----------------------|
-------2--------------|-----------------------|--0--------------L----|
----------------------|-----------------------|----------------------|
--3--------------L----|--1-----------------L--|----------------------|


  Q    Q    Q    E  E     Q    Q    Q    Q       Q    Q    Q    E  E   
--0-----------------L--|----------------------|-------0----0-------0--|
--0---------L----3--3--|----------------------|-------1---------3-----|
-----------------------|------------0---------|-------0---------------|
------------0----------|-----------------3----|-----------------------|
-------2---------------|-------2--------------|--3-----------------L--|
--3--------------------|--3--------------L----|-----------------------|


  Q    Q    Q    E  E     Q    Q    Q    Q       Q    Q    Q    Q     
-------0----3----5--0--|----------------------|----------------------|
-----------------------|-----------------1----|-----------------1----|
-----------------------|------------2---------|------------0---------|
-----------------------|-------2--------------|-------2--------------|
--2-----------------L--|--0--------------L----|----------------------|
-----------------------|----------------------|--3--------------L----|


  Q    Q    Q    E  E     Q    Q    Q    Q       Q    Q    Q    Q     
-------1----1----0--1--|-------1----3----5----|--7--------------L----|
-------1------------L--|----------------------|--8--------------L----|
-------2------------L--|----------------------|--0-------------------|
-----------------------|--0--------------L----|----------------------|
-----------------------|----------------------|----------------------|
--1-----------------L--|----------------------|----------------------|


  Q    Q    Q    Q        Q     Q     Q     Q        Q    Q     Q.      E   
--8----L----7----L----|---8----------------------|----------------------8--|
------------8---------|--10----------------10----|-------------12------10--|
----------------------|--------------10----------|-------------12-------L--|
----------------------|--------10----------------|-------------------------|
----------------------|---8-----------------L----|--10----L-------------L--|
----------------------|--------------------------|-------------------------|


   Q     Q    Q     Q        Q    Q     Q     Q        Q     Q     Q     Q     
---L---------------------|---8----L----------------|---8----------------------|
---L---------------10----|--10----L----12-----L----|--10----------------10----|
--------------9----------|-------------12-----L----|--------------10----------|
--------10---------------|--10---------------------|--------10----------------|
---0----------------L----|--------L----10-----L----|---8-----------------L----|
-------------------------|-------------------------|--------------------------|


   Q    Q     Q.      E      Q     Q    Q     Q        Q    Q     Q     Q     
----------------------8--|---L---------------------|---8----L----------------|
-------------12------10--|---L---------------10----|--10----L----12-----L----|
-------------12-------L--|--------------9----------|-------------12-----L----|
-------------------------|--------10---------------|-------------------------|
--10----L-------------L--|---0----------------L----|---0----L----10-----L----|
-------------------------|-------------------------|-------------------------|


   Q     Q     Q     Q        Q    Q     Q.      E      Q     Q    Q     Q     
---8----------------------|----------------------8--|---L---------------------|
--10----------------10----|-------------12------10--|---L---------------10----|
--------------10----------|-------------12-------L--|--------------9----------|
--------10----------------|-------------------------|--------10---------------|
---8-----------------L----|--10----L-------------L--|---0----------------L----|
--------------------------|-------------------------|-------------------------|


   Q    Q     Q     Q        Q    Q    Q    Q       Q    Q    Q     Q     
---8----L----------------|---8--------------L----|-----------------------|
--10----L----12-----L----|--10--------------L----|--8---------------L----|
-------------12-----L----|-----------------------|-----------------------|
-------------------------|-----------------------|-----------------------|
---8----L----10-----L----|---8--------------L----|-----------------------|
-------------------------|-----------------------|-----------------------|


  Q    Q    Q    Q       Q    Q    E  E  E  E     E  E  E  E  E  E  E  E   
--7--------------L----|--1----L----------------|--------1-----------1-----|
--8--------------L----|--1----L----------1-----|-----------1-----1-----1--|
----------------------|---------------2-----2--|-----2--------2-----------|
----------------------|------------3-----------|--3-----------------------|
----------------------|-------3----------------|--------------------------|
----------------------|--1---------------------|--------------------------|


  E  E  H        Q       Q    Q    Q    Q       Q    Q    Q    Q      
----------------------|--0-------------------|-----------------L----||
----------------------|--1-------------------|-----------------L----||
--2-------------------|--0-------------------|-----------------L----||
-----3----------------|--2-------------------|-----------------L----||
-----------------L----|--3-------------------|----------------------||
--------L-------------|----------------------|----------------------||




Duration Legend
---------------
W - whole
H - half
Q - quarter
E - 8th
S - 16th
T - 32nd
X - 64th
. - note dotted
|-n-|  - n-tuplets


Tablature Legend
----------------
L - tied note
x - dead note
g - grace note
(n) - ghost note
> - accentuded note
NH - natural harmonic
AH - artificial harmonic
TH - tapped harmonic
SH - semi harmonic
PH - pitch harmonic
h - hammer on
p - pull off
b - bend
br - bendRelease
pb - preBend
pbr - preBendRelease
brb - bendReleaseBend
\n/ - tremolo bar dip
\n - tremolo bar dive
-/n - tremolo bar Release up
/n\ - tremolo bar inverted dip
/n - tremolo bar return
-\n - tremolo bar Release down
S - shift slide
s - legato slide
/ -  slide into from below or out of upwards
\ -  slide into from above or out of downwards
~ - vibrato
W - wide vibrato
tr - trill
TP - tremolo picking
T - tapping
S - slap
P - pop
< - fade in
^ - brush up
v - brush down
            
Submit corrections

↑ Back to top | Tablatures and chords for acoustic guitar and electric guitar, ukulele, drums are parodies/interpretations of the original songs. You may use it for private study, scholarship, research or language learning purposes only