» » »

X Japan - Longing Tabs

Artists:  A B C D E F G H I J K L M N O P Q R S T U V W X Y Z # 

Longing Tabs

(ver. 2) Click to play this song!
X Japan
 Rating:
4/5 (4 votes)


 Longing lessons Tabs too difficult? Try these video lessons and learn fast
 
                Ablum:Dahlia

This Solo Should Be Correct
Solo starts at around 3.32 

This whole part is played fast
E|-------------------------------------------------------------------------|
B|----------------------------------------------------15----15-16-15-16-18-|
G|----------------12----12-13-12-13-15-13-15-17-15-17----17----------------|
D|-12-13-15-13-15----15----------------------------------------------------|
A|-------------------------------------------------------------------------|
E|-------------------------------------------------------------------------|

Slower abit
E|----------------------------------------------|
B|----------------------------------------------|
G|-8--6b8-8r--6h8p6-5-3--1b3-3r--1--1--3--3h5p3-|
D|----------------------------------------------|
A|----------------------------------------------|
E|----------------------------------------------|

E|---------------------------------------|
B|---------------------------------------|
G|-8--6b8-8r--13-12-11b13--11b13--13r-13-|
D|---------------------------------------|
A|---------------------------------------|
E|---------------------------------------|

E|-------------------15-13--16-13-15--16-18-20br-18-16-15-16---16-18-20-|
B|-------------13-16----------------------------------------------------|
G|-------13-15----------------------------------------------------------|
D|-13-15----------------------------------------------------------------|
A|----------------------------------------------------------------------|
E|----------------------------------------------------------------------|

  |^^^^^^^^^^^^^^^^^^^^^^^|    
       Play this fast


This Whole Part is Played fast
E|----14----16p14----18p14----20p14----21p14----20p16----18p16----20p16----18p16-|
B|-14----14-------14-------14-------14-------14-------16-------16-------16-------|
G|-------------------------------------------------------------------------------|
D|-------------------------------------------------------------------------------|
A|-------------------------------------------------------------------------------|
E|-------------------------------------------------------------------------------|

E|-20b--20-18-16----16-20-18-|
B|---------------16----------|
G|---------------------------|
D|---------------------------|
A|---------------------------|
E|---------------------------|
            
Submit corrections



        Longing lessons Hard to play? Try these video lessons and learn fast Longing lessons
        
↑ Back to top | Tablatures and chords for acoustic guitar and electric guitar, ukulele, drums are parodies/interpretations of the original songs. You may use it for private study, scholarship, research or language learning purposes only