Home » X » X Ambassadors »

X Ambassadors - Renegades Tabs

Artists:  A B C D E F G H I J K L M N O P Q R S T U V W X Y Z # 

Renegades Tabs

(ver. 2) Click to play this song!
X Ambassadors
Chords used:
   A   Bm  D   G
e|-5---2---5---3-|
B|-5---3---7---3-|
G|-6---4---7---4-|
D|-7---4---7---5-|
A|-7---2---5---5-|
E|-5---x---x---3-|



Intro:

  Bm           D              A              G
e|------------|--------------|--------------|--------------|
B|----3-------|--------------|--------------|----3---------|
G|----------4-|----7---------|---6----------|------------4-|
D|------------|------------7-|------------7-|--------------|
A|-2------2---|-5--------5---|--------------|--------------|
E|------------|--------------|-5--------5---|-3--------3---|

  Bm           D              A              G
e|------------|--------------|--------------|--------------|
B|----3-------|--------------|--------------|----3---------|
G|----------4-|----7---------|---6----------|------------4-|
D|------------|------------7-|------------7-|--------------|
A|-2------2---|-5--------5---|--------------|--------------|
E|------------|--------------|-5--------5---|-3--------3---|

Verse:
Bm        D          A G
 Run away-ay with me
Bm              D      A G
 Lost souls and reverie
Bm               D             A G
 Running wild and running free
Bm         D           A G 
 Two kids, you and me

Chorus:
           Bm           D
 And I say Hey, hey hey hey
        A              G
 Living like we're renegades
         Bm           D
 Hey hey hey, Hey hey hey
        A              G
 Living like we're renegades 
     Bm D A G   Bm D A G
 Renegades, renegades

Verse:
Bm             D         A G
 Long live the pioneers
Bm          D         A G
 Rebels and mutineers
Bm            D            A G
 Go forth and have no fear
Bm              D           A G
 Come close the end is near

Chorus:
           Bm           D
 And I say Hey, hey hey hey
        A              G
 Living like we're renegades
         Bm           D
 Hey hey hey, Hey hey hey
        A              G
 Living like we're renegades 
     Bm D A G   Bm D A G
 Renegades, renegades


Interlude:

  Bm           D              A              G
e|------------|--------------|--------------|--------------|
B|----3-------|--------------|--------------|----3---------|
G|----------4-|----7---------|---6----------|------------4-|
D|------------|------------7-|------------7-|--------------|
A|-2------2---|-5--------5---|--------------|--------------|
E|------------|--------------|-5--------5---|-3--------3---|

  Bm           D              A              G
e|------------|--------------|--------------|--------------|
B|----3-------|--------------|--------------|----3---------|
G|----------4-|----7---------|---6----------|------------4-|
D|------------|------------7-|------------7-|--------------|
A|-2------2---|-5--------5---|--------------|--------------|
E|------------|--------------|-5--------5---|-3--------3---|


Bm            D
 All hail the underdogs
A             G
 All hail the new kids
Bm            D
 All hail the outlaws
A                G
 Spielberg's and Kubrick's
Bm                D
 It's our time to make a move
A                 G
 It's our time to make amends
Bm                D
 It's our time to break the rules
A            G
 Let's begin...

Chorus:
           Bm           D
 And I say Hey, hey hey hey
        A              G
 Living like we're renegades
         Bm           D
 Hey hey hey, Hey hey hey
        A              G
 Living like we're renegades 
     Bm D A G   Bm D A G
 Renegades, renegades
            
Submit corrections

↑ Back to top | Tablatures and chords for acoustic guitar and electric guitar, ukulele, drums are parodies/interpretations of the original songs. You may use it for private study, scholarship, research or language learning purposes only