Home » X » X Ambassadors »

X Ambassadors - Renegades Tabs

Artists:  A B C D E F G H I J K L M N O P Q R S T U V W X Y Z # 

Renegades Tabs

(ver. 1) Click to play this song!
X Ambassadors
Tuning: E Standard

Chords: Cm D A G

Cm: (bar the second fret)
e|-2-
B|-3-
G|-4-
D|-4-
A|-2-
E|-2-

Intro:
e|------------|--------------|--------------|--------------|
B|---3------0-|----3-------0-|----2---------|----3-------0-|
G|------------|--------------|------------2-|--------------|
D|------------|-0-------0----|--------------|--------------|
A|-1-----1----|--------------|-0-------0----|--------------|
E|------------|--------------|--------------|-3-------3----|

e|------------|--------------|--------------|--------------|
B|---3------0-|----3-------0-|----2---------|----3-------0-|
G|------------|--------------|------------2-|--------------|
D|------------|-0-------0----|--------------|--------------|
A|-1-----1----|--------------|-0-------0----|--------------|
E|------------|--------------|--------------|-3-------3----|

After the picking intro is finished you can go into the main chords for the song, repeated until the solo:

Cm          D           A           G
Run away, away with me

Cm          D           A           G
Lost souls and revelry

Cm          D                  A           G
Running wild and running free

Cm          D           A           G
Two kids, you and me                       And I said


Cm                  D        A                  G
Hey, hey hey hey hey! Living like we're Renegades

             Cm            D        A               G
Hey hey hey, hey hey hey! Living like we're Renegades

Cm                  D        A          G
Renegades 

Cm                  D        A          G
Renegades


Cm          D           A           G
Love live the pioneers

Cm          D           A           G
Rebels and mutineers

Cm           D             A           G
Go forth and have no fear

Cm             D           A           G
Come close and lend an ear                   And I said


Cm                  D        A                  G
Hey, hey hey hey hey! Living like we're Renegades

             Cm            D        A               G
Hey hey hey, hey hey hey! Living like we're Renegades

Cm                  D        A          G
Renegades 

Cm                  D        A          G
Renegades


Interlude (same as intro):
e|------------|--------------|--------------|--------------|
B|---3------0-|----3-------0-|----2---------|----3-------0-|
G|------------|--------------|------------2-|--------------|
D|------------|-0-------0----|--------------|--------------|
A|-1-----1----|--------------|-0-------0----|--------------|
E|------------|--------------|--------------|-3-------3----|

Cm          D             
All hail the underdogs

A           G
All hail the new kids

Cm          D  
All hail the outlaws

A              G
Spielbergs and Kubricks

Cm             D         
It's our time to make a move

A              G
It's our time to make amends

Cm             D                  A              G
It's our time to break the rules,      let's begin.                     And I said


Cm                  D        A                  G
Hey, hey hey hey hey! Living like we're Renegades

             Cm            D        A               G
Hey hey hey, hey hey hey! Living like we're Renegades

Cm                  D        A          G
Renegades 

Cm                  D        A          G
Renegades            
Submit corrections

↑ Back to top | Tablatures and chords for acoustic guitar and electric guitar, ukulele, drums are parodies/interpretations of the original songs. You may use it for private study, scholarship, research or language learning purposes only