Home » W » World Party »

World Party - Sunshine Tabs

Artists:  A B C D E F G H I J K L M N O P Q R S T U V W X Y Z # 

Sunshine Tabs

(ver. 1) Click to play this song!
World Party

riff 1:
e-4h5-4--4--4----4------------------------------------------------------
B-5---5--5--5----5---4h5-2h3--2-2---------------------------------------
G-4---4--4--4h6--4---4---2----2-2---------------------------------------
D--------------------4h6-2h4--2-2----2---2--2---2-2---2-2----------2-2--
A-------------------------------2h4--2h4---2h4----4p2-2-2------2h4--4---
E-----------------------------------------------------0-0-0-2h4---------

riff 2  (just a shorter version of main riff)
e-----4h5-4--4--4----4------------------
B-----5---5--5--5----5---4h5-2h3--2-2---
G-----4---4--4--4h6--4---4---2----2-2---
D------------------------4h6-2h4--2-2---
A-----------------------------------2h4-
E---------------------------------------

riff 3:
e--------------------
B--------------------
G--------------------
D----------2---2-----
A------2h4---4-------
E--2h4--------------



A#m                    E
You can't see forward.  You can't look back.
A#m                             E
There's nothing that you need.  There's nothing that you lack.
F#m
A                      E
And it ain't gonna last this way.

You say you're living,  out on the edge.
But you're on solid ground, not on a ledge.
And I think we're gonna make it, this time.




Sunshine I just can't get enough of you.
Sometimes you just blow my mind.

Gonna take it all, gonna change it all for you.


F#m                      A#m        C#m
And I'm so glad that you found me,
F#m                       A#m   C#m
Yeah, you made it just in time.
F#m                        A                 E
Yeah, I'm so glad now, I'm getting delirious.



A#m                          E
You're down in the basement, when we're up here on the roof.
A#m                           E
You're looking for evidence, when you're the living proof.
F#m
A                                 E
But we hope you're gonna make it, up here.


Sunshine I just can't get enough of you.
Sometimes you just blow my mind.
Gonna take it all, gonna change it all for you.

Sunshine don't leave me behind

F#m
I keep getting caught in the rain.
D
Fooled again and again.
A
I start acting like there's no tomorrow.
B
Drowning in a sea of pain and sorrow.  Oh, I said


Sometimes I just can't get enough of you.
Sunshine you just blow my mind.
Gonna take it all, gonna change it all for you

F#m                      A#m       C#m
And I'm so glad that you found me,
F#m                       A#m   C#m
Yeah, you made it just in time.
F#m                        A                 E
Yeah, I'm so glad now, I'm getting delirious.



-----4h5-4--4--4----4------------------------------------0---
-----5---5--5--5----5---4h5-2h3--2-2---------------------0---
-----4---4--4--4h6--4---4---2----2-2---------------------1---
------------------------4h6-2h4--2-2----2---2--2---2-2---2---
-----------------------------------2h4--2h4---2h4----4---2---
---------------------------------------------------------0---


Aaron Rother
            
Submit corrections

↑ Back to top | Tablatures and chords for acoustic guitar and electric guitar, ukulele, drums are parodies/interpretations of the original songs. You may use it for private study, scholarship, research or language learning purposes only