Home » W » Wolves At The Gate »

Wolves At The Gate - Weary Ground Tabs

Artists:  A B C D E F G H I J K L M N O P Q R S T U V W X Y Z # 

Weary Ground Tabs

(ver. 1) Click to play this song!
Wolves At The Gate
[Intro]
e|----------5~---|---------------|----------5~---|---------------|
B|-7-------------|-7-------------|-7-------------|-7-------------|
G|----6--7-------|----6--7--6~---|----6--7-------|----6--7--6~---|
D|---------------|---------------|---------------|---------------|
A|---------------|---------------|---------------|---------------|
E|---------------|---------------|---------------|---------------|

[Verse 1]
e|-----------------------------------------|---------------------------------|
B|-----------------------------------------|---------------------------------|
G|-4-4-4-4-4-4-4-4-11-11-11-11-11-11-11-11-|-4-4-4-4-4-4-4-4/9-9-9-9-7-7-7-7-|
D|-----------------------------------------|---------------------------------|
A|-----------------------------------------|---------------------------------|
E|-----------------------------------------|---------------------------------|

e|-----------------------------------------|---------------------------------|
B|-----------------------------------------|---------------------------------|
G|-4-4-4-4-4-4-4-4-11-11-11-11-11-11-11-11-|-4-4-4-4-4-4-4-4/9-9-9-9-7-7-----|
D|-----------------------------------------|-----------------------------9---|
A|-----------------------------------------|---------------------------------|
E|-----------------------------------------|---------------------------------|

[Pre-chorus]
e|---------------------------------------------|------------------------------------|
B|---------------------------------------------|------------------------------------|
G|-11-11-11-6-6-6-7-7-7---14-14-14-14-14-14-14-|-11-11-11-6-6-6-7-7-7-6-6-6-6-6-6-4-|
D|-x--x--x--x-x-x-x-x-x---x--x--x--x--x--x--x--|-x--x--x--x-x-x-x-x-x-x-x-x-x-x-x-x-|
A|-9--9--9--4-4-4-5-5-5---12-12-12-12-12-12-12-|-9--9--9--4-4-4-5-5-5-4-4-4-4-4-4-2-|
E|---------------------------------------------|------------------------------------|

e|---------------------------------------------|---------------------------------|
B|---------------------------------------------|---------------------------------|
G|-11-11-11-6-6-6-7-7-7---14-14-14-14-14-14-14-|-7-7-7-6-6-6-7-7-7-6-6-6-7-7-7-7-|
D|-x--x--x--x-x-x-x-x-x---x--x--x--x--x--x--x--|-x-x-x-x-x-x-x-x-x-x-x-x-x-x-x-x-|
A|-9--9--9--4-4-4-5-5-5---12-12-12-12-12-12-12-|-9-9-9-4-4-4-5-5-5-4-4-4-5-5-5-5-|
E|---------------------------------------------|---------------------------------|

[Chorus]
e|-------------------------------------------------|---------------------------------|
B|-------12-12-12-12-12-12-12-12-12-12-12-12-12-12-|-7-7-7-7-7-7-7-7-8-8-8-8-5-5-5-5-|
G|-------x--x--x--x--x--x--x--x--x--x--x--x--x--x--|-x-x-x-x-x-x-x-x-x-x-x-x-x-x-x-x-|
D|-------9--9--9--9--9--9--9--9--9--9--9--9--9--9--|-4-4-4-4-4-4-4-4-5-5-5-5-2-2-2-2-|
A|-------------------------------------------------|---------------------------------|
E|-------------------------------------------------|---------------------------------|

e|-------------------------------------------------|---------------------------------|
B|-------12-12-12-12-12-12-12-12-12-12-12-12-12-12-|-7-7-7-7-7-7-7-7-8-8-8-5-5-5-5-5-|
G|-------x--x--x--x--x--x--x--x--x--x--x--x--x--x--|-x-x-x-x-x-x-x-x-x-x-x-x-x-x-x-x-|
D|-------9--9--9--9--9--9--9--9--9--9--9--9--9--9--|-4-4-4-4-4-4-4-4-5-5-5-3-2-2-2-2-|
A|-------------------------------------------------|---------------------------------|
E|-------------------------------------------------|---------------------------------|

[Verse 2]
(Clean)
e|-------------|-------------|-------------|---------------|
B|-------------|-------------|-------------|---------------|
G|-------------|-------------|-------------|---------------|
D|---2-4~------|---2-4~------|---2-4~------|-----2-4~------|
A|-2-----------|-------------|-2-----------|---2-----------|
E|-------------|-2-----------|-------------|-3-------------|

[Pre-chorus]
e|-------------------------------------------|------------------------------------|
B|-------------------------------------------|------------------------------------|
G|-11-11-11-6-6-6-7-7-7-14-14-14-14-14-14-14-|-11-11-11-6-6-6-7-7-7-6-6-6-6-6-6-4-|
D|-x--x--x--x-x-x-x-x-x-x--x--x--x--x--x--x--|-x--x--x--x-x-x-x-x-x-x-x-x-x-x-x-x-|
A|-9--9--9--4-4-4-5-5-5-12-12-12-12-12-12-12-|-9--9--9--4-4-4-5-5-5-4-4-4-4-4-4-2-|
E|-------------------------------------------|------------------------------------|

e|-------------------------------------------|---------------------------------|
B|-------------------------------------------|---------------------------------|
G|-11-11-11-6-6-6-7-7-7-14-14-14-14-14-14-14-|-7-7-7-6-6-6-7-7-7-6-6-6-7-7-7-7-|
D|-x--x--x--x-x-x-x-x-x-x--x--x--x--x--x--x--|-x-x-x-x-x-x-x-x-x-x-x-x-x-x-x-x-|
A|-9--9--9--4-4-4-5-5-5-12-12-12-12-12-12-12-|-5-5-5-4-4-4-5-5-5-4-4-4-5-5-5-5-|
E|-------------------------------------------|---------------------------------|

[Chorus]
e|-------------------------------------------------|---------------------------------|
B|-------12-12-12-12-12-12-12-12-12-12-12-12-12-12-|-7-7-7-7-7-7-7-7-8-8-8-8-5-5-5-5-|
G|-------x--x--x--x--x--x--x--x--x--x--x--x--x--x--|-x-x-x-x-x-x-x-x-x-x-x-x-x-x-x-x-|
D|-------9--9--9--9--9--9--9--9--9--9--9--9--9--9--|-4-4-4-4-4-4-4-4-5-5-5-5-2-2-2-2-|
A|-------------------------------------------------|---------------------------------|
E|-------------------------------------------------|---------------------------------|

e|----------------------------------------------|---------------------------------|
B|-5-5-5-12-12-12-12-12-12-12-12-12-12-12-12-12-|-7-7-7-7-7-7-7-7-8-8-8-8-5-5-5-5-|
G|-x-x-x-x--x--x--x--x--x--x--x--x--x--x--x--x--|-x-x-x-x-x-x-x-x-x-x-x-x-x-x-x-x-|
D|-2-2-2-9--9--9--9--9--9--9--9--9--9--9--9--9--|-4-4-4-4-4-4-4-4-5-5-5-5-2-2-2-2-|
A|----------------------------------------------|---------------------------------|
E|----------------------------------------------|---------------------------------|

[Instrumental]
e|-5h7-7---7--5h7-7---7-7---5--7-|-5h7-7---7--5h7-7---7-7---5--7-|
B|-------8----------7-----7------|-------8----------7-----7------|
G|-------------------------------|-------------------------------|
D|-------------------------------|-------------------------------|
A|-------------------------------|-------------------------------|
E|-------------------------------|-------------------------------|

e|-5h7-7---7--5h7-7---7-7---5--7-|-5h7-7-10-10-10-5-5-5-7-7-7-5--7--|
B|-------8----------7-----7------|----------------------------------|
G|-------------------------------|----------------------------------|
D|-------------------------------|----------------------------------|
A|-------------------------------|----------------------------------|
E|-------------------------------|----------------------------------|

[Bridge]
e|-7-7-7-7-7-7-7-7-10-10-10-10-10-10-10-10-|-7-7-7-7-7-7-7-7-10-10-10-10-5-5-5-5-|
B|-x-x-x-x-x-x-x-x-x--x--x--x--x--x--x--x--|-x-x-x-x-x-x-x-x-x--x--x--x--x-x-x-x-|
G|-4-4-4-4-4-4-4-4-7--7--7--7--7--7--7--7--|-4-4-4-4-4-4-4-4-7--7--7--7--2-2-2-2-|
D|-----------------------------------------|-------------------------------------|
A|-----------------------------------------|-------------------------------------|
E|-----------------------------------------|-------------------------------------|

e|-7-7-7-7-7-7-7-7-10-10-10-10-10-10-10-10-|-7-7-7-7-7-7-7-7-10-10-10-10-5-5-5-5-|
B|-x-x-x-x-x-x-x-x-x--x--x--x--x--x--x--x--|-x-x-x-x-x-x-x-x-x--x--x--x--x-x-x-x-|
G|-4-4-4-4-4-4-4-4-7--7--7--7--7--7--7--7--|-4-4-4-4-4-4-4-4-7--7--7--7--2-2-2-2-|
D|-----------------------------------------|-------------------------------------|
A|-----------------------------------------|-------------------------------------|
E|-----------------------------------------|-------------------------------------|

(Clean)
 PM
e|---------------------------------|---------------------------------|
B|---------------------------------|---------------------------------|
G|---------------------------------|---------------------------------|
D|-4-4-4-4-4-4-4-4-4-4-4-4-4-4-4-4-|-4-4-4-4-4-4-4-4-4-4-4-4-4-4-4-4-|
A|-2-2-2-2-2-2-2-2-2-2-2-2-2-2-2-2-|-2-2-2-2-2-2-2-2-2-2-2-2-2-2-2-2-|
E|---------------------------------|---------------------------------|

e|---------------------------------|---------------------------------|
B|---------------------------------|---------------------------------|
G|---------------------------------|---------------------------------|
D|-0-0-0-0-0-0-0-0-0-0-0-0-0-0-0-0-|-0-0-0-0-0-0-0-0-0-0-0-0-0-0-0-0-|
A|-2-2-2-2-2-2-2-2-2-2-2-2-2-2-2-2-|-2-2-2-2-2-2-2-2-2-2-2-2-2-2-2-2-|
E|---------------------------------|---------------------------------|

e|---------------------------------|---------------------------------|
B|---------------------------------|---------------------------------|
G|---------------------------------|---------------------------------|
D|-4-4-4-4-4-4-4-4-4-4-4-4-4-4-4-4-|-4-4-4-4-4-4-4-4-4-4-4-4-4-4-4-4-|
A|-2-2-2-2-2-2-2-2-2-2-2-2-2-2-2-2-|-2-2-2-2-2-2-2-2-2-2-2-2-2-2-2-2-|
E|---------------------------------|---------------------------------|

e|---------------------------------|---------|
B|---------------------------------|---------|
G|---------------------------------|-4~------|
D|-0-0-0-0-0-0-0-0-0-0-0-0-0-0-0-0-|-4~------|
A|-2-2-2-2-2-2-2-2-2-2-2-2-2-2-2-2-|-2~------|
E|---------------------------------|---------|

(Dirty)
e|---------------------------------|------------------------------------|
B|---------------------------------|-------10-10-10---------------------|
G|-7-7-7-7-7-7-7-7-7-7-7-7-6-6-7-7-|-7-7-7-x--x--x--7-7-7-7-7-7-6-6-6-4-|
D|-x-x-x-x-x-x-x-x-x-x-x-x-x-x-x-x-|-x-x-x-7--7--7--x-x-x-x-x-x-x-x-x-x-|
A|-5-5-5-5-5-5-5-5-5-5-5-5-4-4-5-5-|-5-5-5----------5-5-5-5-5-5-4-4-4-2-|
E|-7-7-7-7-7-7-7-7-7-7-7-7-5-5-7-7-|------------------------------------|

e|---------------------------------|---------------------------------|
B|---------------------------------|---------------------------------|
G|-----7-7-7-7-7-7-6-6-6-6-6-6-6-6-|-6-6-6-6-6-6-6-6-6-6-6-6-6-6-6-6-|
D|-----x-x-x-x-x-x-x-x-x-x-x-x-x-x-|-x-x-x-x-x-x-x-x-x-x-x-x-x-x-x-x-|
A|-----5-5-5-5-5-5-4-4-4-4-4-4-4-4-|-4-4-4-4-4-4-4-4-4-4-4-4-4-4-4-4-|
E|-----7-7-7-7-7-7-5-5-5-5-5-5-5-5-|---------------------------------|

e|---------------------------------|------------------------------------|
B|---------------------------------|-------10-10-10---------------------|
G|-7-7-7-7-7-7-7-7-7-7-7-7-6-6-7-7-|-7-7-7-x--x--x--7-7-7-7-7-7-6-6-6-4-|
D|-x-x-x-x-x-x-x-x-x-x-x-x-x-x-x-x-|-x-x-x-7--7--7--x-x-x-x-x-x-x-x-x-x-|
A|-5-5-5-5-5-5-5-5-5-5-5-5-4-4-5-5-|-5-5-5----------5-5-5-5-5-5-4-4-4-2-|
E|-7-7-7-7-7-7-7-7-7-7-7-7-5-5-7-7-|------------------------------------|

e|---------------------------------|---------------------------------|
B|---------------------------------|---------------------------------|
G|-----7-7-7-7-7-7-6-6-6-6-6-6-6-6-|-7-7-7-7-7-7-7-7-6-6-6-6-6-6-6-6-|
D|-----x-x-x-x-x-x-x-x-x-x-x-x-x-x-|-x-x-x-x-x-x-x-x-x-x-x-x-x-x-x-x-|
A|-----5-5-5-5-5-5-4-4-4-4-4-4-4-4-|-5-5-5-5-5-5-5-5-4-4-4-4-4-4-4-4-|
E|-----7-7-7-7-7-7-5-5-5-5-5-5-5-5-|---------------------------------|

[Outro]
e|-------------------------------------------|------------------------------------|
B|-------------------------------------------|------------------------------------|
G|-11-11-11-6-6-6-7-7-7-14-14-14-14-14-14-14-|-11-11-11-6-6-6-7-7-7-6-6-6-6-6-6-4-|
D|-x--x--x--x-x-x-x-x-x-x--x--x--x--x--x--x--|-x--x--x--x-x-x-x-x-x-x-x-x-x-x-x-x-|
A|-9--9--9--4-4-4-5-5-5-12-12-12-12-12-12-12-|-9--9--9--4-4-4-5-5-5-4-4-4-4-4-4-2-|
E|-------------------------------------------|------------------------------------|

e|-------------------------------------------|---------------------------------|
B|-------------------------------------------|---------------------------------|
G|-11-11-11-6-6-6-7-7-7-14-14-14-14-14-14-14-|-7-7-7-6-6-6-7-7-7-6-6-6-7-7-7-7-|
D|-x--x--x--x-x-x-x-x-x-x--x--x--x--x--x--x--|-x-x-x-x-x-x-x-x-x-x-x-x-x-x-x-x-|
A|-9--9--9--4-4-4-5-5-5-12-12-12-12-12-12-12-|-5-5-5-4-4-4-5-5-5-4-4-4-5-5-5-5-|
E|-------------------------------------------|---------------------------------|

e|-7~---|
B|-7~---|
G|-7~---|
D|-0~---|
A|-x----|
E|-7~---|            
Submit corrections

↑ Back to top | Tablatures and chords for acoustic guitar and electric guitar, ukulele, drums are parodies/interpretations of the original songs. You may use it for private study, scholarship, research or language learning purposes only