Home » W » Wolves At The Gate »

Wolves At The Gate - Wake Up Tabs

Artists:  A B C D E F G H I J K L M N O P Q R S T U V W X Y Z # 

Wake Up Tabs

(ver. 1) Click to play this song!
Wolves At The Gate
[Intro]
B |-13--12-----13--12-----13--12----------|-13--12-----13--12-----13--12-----15~--|
F#|---------15---------15---------15-13~--|---------15---------15---------15------|
D |---------------------------------------|---------------------------------------|
A |---------------------------------------|---------------------------------------|
E |---------------------------------------|---------------------------------------|
A |---------------------------------------|---------------------------------------|

B |-13--12-----13--12-----13--12----------|-13--12-----13--12-----13--12-----15~--|
F#|---------15---------15---------15------|---------15---------15---------15------|
D |----------------------------------15~--|---------------------------------------|
A |---------------------------------------|---------------------------------------|
E |---------------------------------------|---------------------------------------|
A |---------------------------------------|---------------------------------------|

B |-13--12-----13--12-----13--12----------|-13--12-----13--12-----13--12----------|
F#|---------15---------15---------15------|---------15---------15---------15-13~--|
D |----------------------------------14~--|---------------------------------------|
A |---------------------------------------|---------------------------------------|
E |---------------------------------------|---------------------------------------|
A |---------------------------------------|---------------------------------------|

B |--------------------------------------------|
F#|--------------------------------------------|
D |--------------------------------------------|
A |-0---0--------x--------8---8--------x-------|
E |-0---0---0-x--x--x--x--8---8---x-x--x--x--x-|
A |-0---0---0-x--x--x--x--8---8---x-x--x--x--x-|

B |----------------------------------------|
F#|----------------------------------------|
D |----------------------------------------|
A |-0---0--------x--------8---8---10---10--|
E |-0---0---0-x--x--x--x--8---8---10---10--|
A |-0---0---0-x--x--x--x--8---8---10---10--|

B |--------------------------------------------|
F#|--------------------------------------------|
D |--------------------------------------------|
A |-0---0--------x--------8---8--------x-------|
E |-0---0---0-x--x--x--x--8---8---x-x--x--x--x-|
A |-0---0---0-x--x--x--x--8---8---x-x--x--x--x-|

B |----------------------------------------|
F#|----------------------------------------|
D |----------------------------------------|
A |-0---0--------x--------8---8---10---10--|
E |-0---0---0-x--x--x--x--8---8---10---10--|
A |-0---0---0-x--x--x--x--8---8---10---10--|

[Verse 1]
B |------------------------------|------------------------/8----|
F#|-10--8--6--5h6p5--------------|-10--8--6--5h6p5--------------|
D |-------------------9-7---5-7--|-------------------9-7-----7--|
A |------------------------------|------------------------------|
E |------------------------------|------------------------------|
A |------------------------------|------------------------------|

B |------------------------------|------------------------/10-8--|
F#|-10--8--6--5h6p5--------------|-10--8--6--5h6p5---------------|
D |-------------------9-7---5-7--|-------------------9-7---------|
A |------------------------------|-------------------------------|
E |------------------------------|-------------------------------|
A |------------------------------|-------------------------------|

[Pre-chorus]
B |------------------------------------|------------------------------------|
F#|-3--3--3--3--3--3-----5-5-5-5-5-5-5-|-6--6--6--6--6--6-----6-6-6-5-5-5-5-|
D |-3--3--3--3--3--3-----5-5-5-5-5-5-5-|-7--7--7--7--7--7-----7-7-7-5-5-5-5-|
A |-x--x--x--x--x--x-----x-x-x-x-x-x-x-|-x--x--x--x--x--x-----x-x-x-x-x-x-x-|
E |-1--1--1--1--1--1-----3-3-3-3-3-3-3-|-5--5--5--5--5--5-----5-5-5-3-3-3-3-|
A |------------------------------------|------------------------------------|

B |------------------------------------|------------------------------------|-----|
F#|-3--3--3--3--3--3-----5-5-5-5-5-5-5-|-6--6--6--6--6--6-----6-6-6-5-5-5-5-|-----|
D |-3--3--3--3--3--3-----5-5-5-5-5-5-5-|-7--7--7--7--7--7-----7-7-7-5-5-5-5-|-7~--|
A |-x--x--x--x--x--x-----x-x-x-x-x-x-x-|-x--x--x--x--x--x-----x-x-x-x-x-x-x-|-7~--|
E |-1--1--1--1--1--1-----3-3-3-3-3-3-3-|-5--5--5--5--5--5-----5-5-5-3-3-3-3-|-5~--|
A |------------------------------------|------------------------------------|-0~--|

[Chorus]
B |-13--12-----13--12-----13--12----------|-13--12-----13--12-----13--12-----15~--|
F#|---------15---------15---------15-13~--|---------15---------15---------15------|
D |---------------------------------------|---------------------------------------|
A |---------------------------------------|---------------------------------------|
E |---------------------------------------|---------------------------------------|
A |---------------------------------------|---------------------------------------|

B |-13--12-----13--12-----13--12----------|-13--12-----13--12-----13--12-----15~--|
F#|---------15---------15---------15------|---------15---------15---------15------|
D |----------------------------------15~--|---------------------------------------|
A |---------------------------------------|---------------------------------------|
E |---------------------------------------|---------------------------------------|
A |---------------------------------------|---------------------------------------|

B |-----------------------------------|
F#|-----------------------------------|
D |-7b8r7-----7b8r7------7b8r7--------|
A |-----------------------------------|
E |-----------------------------------|
A |--------0----------0---------0--=--|

[Instrumental]
B |-----------------------------------|----------------------------------|
F#|-----------------------------------|----------------------------------|
D |-7b8r7-----7b8r7------7b8r7-----3--|-7b8r7-----7b8r7-----7b8r7-----5--|
A |--------------------------------3--|-------------------------------5--|
E |--------------------------------1--|-------------------------------3--|
A |--------0----------0---------0-----|--------0---------0---------0-----|

B |-----------------------------------|----------------------------------|
F#|-----------------------------------|----------------------------------|
D |-7b8r7-----7b8r7------7b8r7-----3--|-7b8r7-----7b8r7-----7b8r7-----5--|
A |--------------------------------3--|-------------------------------5--|
E |--------------------------------1--|-------------------------------3--|
A |--------0----------0---------0-----|--------0---------0---------0-----|

B |--------------------------------------|-13--12-------------13--12--------------------------|
F#|-10--8--6--5---6~---10--8--6----------|---------10\8/10~-----------13b15r13--10--8--5h6p5--|
D |-------------7----------------5\3-5~--|----------------------------------------------------|
A |--------------------------------------|----------------------------------------------------|
E |--------------------------------------|----------------------------------------------------|
A |--------------------------------------|----------------------------------------------------|

[Verse 2]
B |------------------------------|------------------------/8----|
F#|-10--8--6--5h6p5--------------|-10--8--6--5h6p5--------------|
D |-------------------9-7---5-7--|-------------------9-7-----7--|
A |------------------------------|------------------------------|
E |------------------------------|------------------------------|
A |------------------------------|------------------------------|

B |------------------------------|------------------------/10-8--|
F#|-10--8--6--5h6p5--------------|-10--8--6--5h6p5---------------|
D |-------------------9-7---5-7--|-------------------9-7---------|
A |------------------------------|-------------------------------|
E |------------------------------|-------------------------------|
A |------------------------------|-------------------------------|

[Pre-chorus]
B |------------------------------------|------------------------------------|
F#|-3--3--3--3--3--3-----5-5-5-5-5-5-5-|-6--6--6--6--6--6-----6-6-6-5-5-5-5-|
D |-3--3--3--3--3--3-----5-5-5-5-5-5-5-|-7--7--7--7--7--7-----7-7-7-5-5-5-5-|
A |-x--x--x--x--x--x-----x-x-x-x-x-x-x-|-x--x--x--x--x--x-----x-x-x-x-x-x-x-|
E |-1--1--1--1--1--1-----3-3-3-3-3-3-3-|-5--5--5--5--5--5-----5-5-5-3-3-3-3-|
A |------------------------------------|------------------------------------|

B |------------------------------------|------------------------------------|
F#|-3--3--3--3--3--3-----5-5-5-5-5-5-5-|-6--6--6--6--6--6-----6-6-6-5-5-5-5-|
D |-3--3--3--3--3--3-----5-5-5-5-5-5-5-|-7--7--7--7--7--7-----7-7-7-5-5-5-5-|
A |-x--x--x--x--x--x-----x-x-x-x-x-x-x-|-x--x--x--x--x--x-----x-x-x-x-x-x-x-|
E |-1--1--1--1--1--1-----3-3-3-3-3-3-3-|-5--5--5--5--5--5-----5-5-5-3-3-3-3-|
A |------------------------------------|------------------------------------|

B |----------------------------|----------------------------|
F#|-3--3--3--3------5-5--5--5--|-6--6--6--6------6-6--5--5--|
D |-3--3--3--3------5-5--5--5--|-7--7--7--7------7-7--5--5--|
A |-x--x--x--x------x-x--x--x--|-x--x--x--x------x-x--x--x--|
E |-1--1--1--1------3-3--3--3--|-5--5--5--5------5-5--3--3--|
A |----------------------------|----------------------------|

B |------------------------------------|------------------------------------|
F#|-3--3--3--3--3--3-----5-5-5-5-5-5-5-|-6--6--6--6--6--6-----6-6-6-5-5-5-5-|
D |-3--3--3--3--3--3-----5-5-5-5-5-5-5-|-7--7--7--7--7--7-----7-7-7-5-5-5-5-|
A |-x--x--x--x--x--x-----x-x-x-x-x-x-x-|-x--x--x--x--x--x-----x-x-x-x-x-x-x-|
E |-1--1--1--1--1--1-----3-3-3-3-3-3-3-|-5--5--5--5--5--5-----5-5-5-3-3-3-3-|
A |------------------------------------|------------------------------------|

[Outro]
B |-13--12-----13--12-----13--12-----12~--|-13--12-----13--12--13-------------17---------|
F#|---------15---------15---------15------|---------15------------13--15--13------15--13-|
D |---------------------------------------|----------------------------------------------|
A |---------------------------------------|----------------------------------------------|
E |---------------------------------------|----------------------------------------------|
A |---------------------------------------|----------------------------------------------|

B |-13--12-----13--12-----13--12-----12~--|-13--12-----13--12--13-------------17---------|-----|
F#|---------15---------15---------15------|---------15------------13--15--13------15--13-|-----|
D |---------------------------------------|----------------------------------------------|-7~--|
A |---------------------------------------|----------------------------------------------|-7~--|
E |---------------------------------------|----------------------------------------------|-5~--|
A |---------------------------------------|----------------------------------------------|-0~--|            
Submit corrections

↑ Back to top | Tablatures and chords for acoustic guitar and electric guitar, ukulele, drums are parodies/interpretations of the original songs. You may use it for private study, scholarship, research or language learning purposes only