Home » W » Wolves At The Gate »

Wolves At The Gate - Fountain Tabs

Artists:  A B C D E F G H I J K L M N O P Q R S T U V W X Y Z # 

Fountain Tabs

(ver. 1) Click to play this song!
Wolves At The Gate
[Intro]
(Acoustic guitar)
e|----------------------------------|----------------------------------|
B|----------------------------------|---------2~---------------2~------|
G|-----2---4p2---2------2---4p2---2-|-----4-----4---4------4-----4---4-|
D|---4---4-----4------4---4-----4---|---5---5-----5------5---5-----5---|
A|-2----------------2---------------|-2----------------2---------------|
E|----------------------------------|----------------------------------|

e|----------------------------------|----------------------------------|
B|----------------------------------|---------2~---------------2~------|
G|-----2---4p2---2------2---4p2---2-|-----4-----4---4------4-----4---4-|
D|---4---4-----4------4---4-----4---|---5---5-----5------5---5-----5---|
A|-2----------------2---------------|-2----------------2---------------|
E|----------------------------------|----------------------------------|

[Verse 1]
e|----------------------------------|----------------------------------|
B|----------------------------------|---------2~---------------2~------|
G|-----2---4p2---2------2---4p2---2-|-----4-----4---4------4-----4---4-|
D|---4---4-----4------4---4-----4---|---5---5-----5------5---5-----5---|
A|-2----------------2---------------|-2----------------2---------------|
E|----------------------------------|----------------------------------|

e|----------------------------------|----------------------------------|
B|----------------------------------|---------2~---------------2~------|
G|-----2---4p2---2------2---4p2---2-|-----4-----4---4------4-----4---4-|
D|---4---4-----4------4---4-----4---|---5---5-----5------5---5-----5---|
A|-2----------------2---------------|-2----------------2---------------|
E|----------------------------------|----------------------------------|

(Guitar 1)
e|----------------------------------|----------------------------------|
B|----------------------------------|---------2~---------------2~------|
G|-----2---4p2---2------2---4p2---2-|-----4-----4---4------4-----4---4-|
D|---4---4-----4------4---4-----4---|---5---5-----5------5---5-----5---|
A|-2----------------2---------------|-2----------------2---------------|
E|----------------------------------|----------------------------------|

e|----------------------------------|----------------------------------|
B|----------------------------------|---------2~---------------2~------|
G|-----2---4p2---2------2---4p2---2-|-----4-----4---4------4-----4---4-|
D|---4---4-----4------4---4-----4---|---5---5-----5------5---5-----5---|
A|-2----------------2---------------|-2----------------2---------------|
E|----------------------------------|----------------------------------|

(Guitar 2/Electric guitar)
 PM
e|---------------------------------|---------------------------------|
B|---------------------------------|---------------------------------|
G|---------------------------------|---------------------------------|
D|---------------------------------|---------------------------------|
A|-9-9-9-9-9-9-9-9-9-9-9-9-9-9-9-9-|-9-9-9-9-9-9-9-9-9-9-9-9-9-9-9-9-|
E|-7-7-7-7-7-7-7-7-7-7-7-7-7-7-7-7-|-7-7-7-7-7-7-7-7-7-7-7-7-7-7-7-7-|

e|---------------------------------|---------------------------------|
B|---------------------------------|---------------------------------|
G|---------------------------------|---------------------------------|
D|---------------------------------|---------------------------------|
A|-9-9-9-9-9-9-9-9-9-9-9-9-9-9-9-9-|-9-9-9-9-9-9-9-9-9-9-9-9-9-9-9-9-|
E|-7-7-7-7-7-7-7-7-7-7-7-7-7-7-7-7-|-7-7-7-7-7-7-7-7-7-7-7-7-7-7-7-7-|

[Chorus]
(Electric guitar)
e|---------|---------|---------|---------|---------|---------|---------|---------|-----|
B|---------|---------|---------|---------|---------|---------|---------|---------|-----|
G|---------|---------|---------|---------|---------|---------|---------|---------|-----|
D|-9~------|-5~------|-9~------|-5~------|-9~------|-5~------|-9~------|-5~------|-9~--|
A|-9~------|-5~------|-9~------|-5~------|-9~------|-5~------|-9~------|-5~------|-9~--|
E|-7~------|-3~------|-7~------|-3~------|-7~------|-3~------|-7~------|-3~------|-7~--|

[Instrumental]
(Acoustic guitar)
e|----------------------------------|----------------------------------|
B|----------------------------------|---------2~---------------2~------|
G|-----2---4p2---2------2---4p2---2-|-----4-----4---4------4-----4---4-|
D|---4---4-----4------4---4-----4---|---5---5-----5------5---5-----5---|
A|-2----------------2---------------|-2----------------2---------------|
E|----------------------------------|----------------------------------|

e|----------------------------------|----------------------------------|
B|----------------------------------|---------2~---------------2~------|
G|-----2---4p2---2------2---4p2---2-|-----4-----4---4------4-----4---4-|
D|---4---4-----4------4---4-----4---|---5---5-----5------5---5-----5---|
A|-2----------------2---------------|-2----------------2---------------|
E|----------------------------------|----------------------------------|

[Verse 2]
(Guitar 1)
e|----------------------------------|----------------------------------|
B|----------------------------------|---------2~---------------2~------|
G|-----2---4p2---2------2---4p2---2-|-----4-----4---4------4-----4---4-|
D|---4---4-----4------4---4-----4---|---5---5-----5------5---5-----5---|
A|-2----------------2---------------|-2----------------2---------------|
E|----------------------------------|----------------------------------|

e|----------------------------------|----------------------------------|
B|----------------------------------|---------2~---------------2~------|
G|-----2---4p2---2------2---4p2---2-|-----4-----4---4------4-----4---4-|
D|---4---4-----4------4---4-----4---|---5---5-----5------5---5-----5---|
A|-2----------------2---------------|-2----------------2---------------|
E|----------------------------------|----------------------------------|

e|----------------------------------|----------------------------------|
B|----------------------------------|---------2~---------------2~------|
G|-----2---4p2---2------2---4p2---2-|-----4-----4---4------4-----4---4-|
D|---4---4-----4------4---4-----4---|---5---5-----5------5---5-----5---|
A|-2----------------2---------------|-2----------------2---------------|
E|----------------------------------|----------------------------------|

e|----------------------------------|----------------------------------|
B|----------------------------------|---------2~---------------2~------|
G|-----2---4p2---2------2---4p2---2-|-----4-----4---4------4-----4---4-|
D|---4---4-----4------4---4-----4---|---5---5-----5------5---5-----5---|
A|-2----------------2---------------|-2----------------2---------------|
E|----------------------------------|----------------------------------|

(Guitar 2/Electric guitar)
 PM
e|---------------------------------|---------------------------------|
B|---------------------------------|---------------------------------|
G|---------------------------------|---------------------------------|
D|---------------------------------|---------------------------------|
A|-9-9-9-9-9-9-9-9-9-9-9-9-9-9-9-9-|-9-9-9-9-9-9-9-9-9-9-9-9-9-9-9-9-|
E|-7-7-7-7-7-7-7-7-7-7-7-7-7-7-7-7-|-7-7-7-7-7-7-7-7-7-7-7-7-7-7-7-7-|

e|---------------------------------|---------------------------------|
B|---------------------------------|---------------------------------|
G|---------------------------------|---------------------------------|
D|---------------------------------|---------------------------------|
A|-9-9-9-9-9-9-9-9-9-9-9-9-9-9-9-9-|-9-9-9-9-9-9-9-9-9-9-9-9-9-9-9-9-|
E|-7-7-7-7-7-7-7-7-7-7-7-7-7-7-7-7-|-7-7-7-7-7-7-7-7-7-7-7-7-7-7-7-7-|

e|---------------------------------|---------------------------------|
B|---------------------------------|---------------------------------|
G|---------------------------------|---------------------------------|
D|-9-9-9-9-9-9-9-9-9-9-9-9-9-9-9-9-|-9-9-9-9-9-9-9-9-9-9-9-9-9-9-9-9-|
A|-9-9-9-9-9-9-9-9-9-9-9-9-9-9-9-9-|-9-9-9-9-9-9-9-9-9-9-9-9-9-9-9-9-|
E|-7-7-7-7-7-7-7-7-7-7-7-7-7-7-7-7-|-7-7-7-7-7-7-7-7-7-7-7-7-7-7-7-7-|

e|---------------------------------|---------------------------------|
B|---------------------------------|---------------------------------|
G|---------------------------------|---------------------------------|
D|-9-9-9-9-9-9-9-9-9-9-9-9-9-9-9-9-|-9-9-9-9-9-9-9-9-9-9-9-9-9-9-9-9-|
A|-9-9-9-9-9-9-9-9-9-9-9-9-9-9-9-9-|-9-9-9-9-9-9-9-9-9-9-9-9-9-9-9-9-|
E|-7-7-7-7-7-7-7-7-7-7-7-7-7-7-7-7-|-7-7-7-7-7-7-7-7-7-7-7-7-7-7-7-7-|

[Pre-chorus]
e|----------------------------------|----------------------------------|
B|----------------------------------|---------2~---------------2~------|
G|-----2---4p2---2------2---4p2---2-|-----4-----4---4------4-----4---4-|
D|---4---4-----4------4---4-----4---|---5---5-----5------5---5-----5---|
A|-2----------------2---------------|-2----------------2---------------|
E|----------------------------------|----------------------------------|

[Chorus]
e|-----------------|-----------------|-----------------|-----------------|
B|-----------------|-----------------|-----------------|-----------------|
G|---7-7-6-6---2-2-|-2---------------|---7-7-6-6-6-9-9-|-9-9-9-9-9-9-9-9-|
D|-x-x-x-x-x---x-x-|-x-4-4-4-4-4-4-4-|-x-x-x-x-x-x-x-x-|-x-x-x-x-x-x-x-x-|
A|-x-5-5-4-4---0-0-|-0-x-x-x-x-x-x-x-|-x-5-5-4-4-4-7-7-|-7-7-7-7-7-7-7-7-|
E|-----------------|---2-2-2-2-2-2-2-|-----------------|-----------------|

e|-----------------|-----------------|-----------------|------------------|
B|-----------------|-----------------|-----------------|------------------|
G|-7-7-7-6-6-6-2-2-|-2---------------|-7-7-7-6-6-6-9-9-|-9-11-9-9-9-9-9-9-|
D|-x-x-x-x-x-x-x-x-|-x-4-4-4-4-4-4-4-|-x-x-x-x-x-x-x-x-|-x-x--x-x-x-x-x-x-|
A|-5-5-5-4-4-4-0-0-|-0-x-x-x-x-x-x-x-|-5-5-5-4-4-4-7-7-|-7-9--7-7-7-7-7-7-|
E|-----------------|---2-2-2-2-2-2-2-|-----------------|------------------|

e|-----------------|-----------------|-----------------|---------------------|
B|-----------------|-----------------|-----------------|---------------------|
G|-7-7-7-6-6-6-2-2-|-2---------------|---7-7-6-6-6-9-9-|-9-11-9-9-11-9-11-11-|
D|-x-x-x-x-x-x-x-x-|-x-4-4-4-4-4-4-4-|-x-x-x-x-x-x-x-x-|-x-x--x-x-x--x-x--x--|
A|-5-5-5-4-4-4-0-0-|-0-x-x-x-x-x-x-x-|-x-5-5-4-4-4-7-7-|-7-9--7-7-9--7-9--9--|
E|-----------------|---2-2-2-2-2-2-2-|-----------------|---------------------|

e|-----------------|-----------------|-----------------|------------------|
B|-----------------|-----------------|-----------------|------------------|
G|-7-7-7-6-6-6-2-2-|-2---------------|-7-7-7-6-6-6-9-9-|-9-11-9-9-9-9-9-9-|
D|-x-x-x-x-x-x-x-x-|-x-4-4-4-4-4-4-4-|-x-x-x-x-x-x-x-x-|-x-x--x-x-x-x-x-x-|
A|-5-5-5-4-4-4-0-0-|-0-x-x-x-x-x-x-x-|-5-5-5-4-4-4-7-7-|-7-9--7-7-7-7-7-7-|
E|-----------------|---2-2-2-2-2-2-2-|-----------------|------------------|

[Bridge]
e|-----------------|-----------------|-----------------|---------------------|
B|-----------------|-----------------|-----------------|---------------------|
G|---7-7-7-7-2-2-2-|-2---------------|---7-7-7-6-6-9-9-|-9-9-9-9-14-14-14-14-|
D|-x-x-x-x-x-x-x-x-|-x-4-4-4-4-4-4-4-|-x-x-x-x-x-x-x-x-|-x-x-x-x-x--x--x--x--|
A|-x-5-5-5-5-0-0-0-|-0-x-x-x-x-x-x-x-|-x-5-5-5-4-4-7-7-|-7-7-7-7-12-12-12-12-|
E|-----------------|---2-2-2-2-2-2-2-|-----------------|---------------------|

e|-----------------|-----------------|-----------------|-----------------|
B|-----------------|-----------------|-----------------|-----------------|
G|-7-7-7-6-6-6-2-2-|-2---------------|-7-7-7-6-6-6-9-9-|-7-2-2-2---------|
D|-x-x-x-x-x-x-x-x-|-x-4-4-4-4-4-4-4-|-x-x-x-x-x-x-x-x-|-x-x-x-x-4-4-4-4-|
A|-5-5-5-4-4-4-0-0-|-0-x-x-x-x-x-x-x-|-5-5-5-4-4-4-7-7-|-5-0-0-0-x-x-x-x-|
E|-----------------|---2-2-2-2-2-2-2-|-----------------|---------2-2-2-2-|

e|-----------------|-----------------|-----------------|---------------------|
B|-----------------|-----------------|-----------------|---------------------|
G|---7-7-7-7-2-2-2-|-2---------------|---7-7-7-6-6-9-9-|-9-9-9-9-14-14-14-14-|
D|-x-x-x-x-x-x-x-x-|-x-4-4-4-4-4-4-4-|-x-x-x-x-x-x-x-x-|-x-x-x-x-x--x--x--x--|
A|-x-5-5-5-5-0-0-0-|-0-x-x-x-x-x-x-x-|-x-5-5-5-4-4-7-7-|-7-7-7-7-12-12-12-12-|
E|-----------------|---2-2-2-2-2-2-2-|-----------------|---------------------|

e|-----------------|-----------------|-----------------|-----------------|
B|-----------------|-----------------|-----------------|-----------------|
G|-2-2-2-7-6-2-2-2-|-2---------------|-7-7-7-9-9-9-9-9-|-7-2-2-2---------|
D|-x-x-x-x-x-x-x-x-|-x-4-4-4-4-4-4-4-|-x-x-x-x-x-x-x-x-|-x-x-x-x-4-4-4-4-|
A|-0-0-0-5-4-0-0-0-|-0-x-x-x-x-x-x-x-|-5-5-5-7-7-7-7-7-|-5-0-0-0-x-x-x-x-|
E|-----------------|---2-2-2-2-2-2-2-|-----------------|---------2-2-2-2-|

[Outro]
e|---------|
B|---------|
G|---------|
D|-4~------|
A|---------|
E|-2~------|

(Acoustic guitar)
e|----------------------------------|----------------------------------|
B|----------------------------------|---------2~---------------2~------|
G|-----2---4p2---2------2---4p2---2-|-----4-----4---4------4-----4---4-|
D|---4---4-----4------4---4-----4---|---5---5-----5------5---5-----5---|
A|-2----------------2---------------|-2----------------2---------------|
E|----------------------------------|----------------------------------|

e|----------------------------------|----------------------------------|
B|----------------------------------|---------2~---------------2~------|
G|-----2---4p2---2------2---4p2---2-|-----4-----4---4------4-----4---4-|
D|---4---4-----4------4---4-----4---|---5---5-----5------5---5-----5---|
A|-2----------------2---------------|-2----------------2---------------|
E|----------------------------------|----------------------------------|

(Electric guitar)
e|----------5~---|---------------|----------5~---|-------------|
B|-7-------------|-7-------------|-7-------------|-7-----------|
G|----6--7-------|----6--7--6~---|----6--7-------|----6--7--6--|
D|---------------|---------------|---------------|-------------|
A|---------------|---------------|---------------|-------------|
E|---------------|---------------|---------------|-------------|            
Submit corrections

↑ Back to top | Tablatures and chords for acoustic guitar and electric guitar, ukulele, drums are parodies/interpretations of the original songs. You may use it for private study, scholarship, research or language learning purposes only