» » »

Wolves At The Gate - Asleep Chords

Artists:  A B C D E F G H I J K L M N O P Q R S T U V W X Y Z # 

Asleep Chords

(ver. 1) Click to play this song!
Wolves At The Gate
 Rating:
4.3/5 (18 votes)

 Asleep lessons Tabs too difficult? Try these video lessons and learn fast
 
                [Intro]
B |-10-10-10-10-10-10-10-10-10-10-10-10-10-10-10-10-|
F#|-------------------------------------------------|
D |-7--7--7--7--7--7--7--7--7--7--7--7--7--7--7--7--|
A |-------------------------------------------------|
E |-------------5-----------------------------------|
A |-------------------------------------------------|

B |-10-10-10-10-10-10-10-10-10-10-10-10-10-10-10-10-|
F#|-------------------------------------------------|
D |-7--7--7--7--7--7--7--7--7--7--7--7--7--7--7--7--|
A |-------------------------------------------------|
E |-------------5-----------------------------------|
A |-------------------------------------------------|

B |-10-10-10-10-10-10-10-10-10-10-10-10-10-10-10-10-|
F#|-------------------------------------------------|
D |-7--7--7--7--7--7--7--7--7--7--7--7--7--7--7--7--|
A |-------------------------------------------------|
E |-------------5-----------------------------------|
A |-------------------------------------------------|

B |-10-10-10-10-10-10-10-10-13-13-13-13-13-13-13\--|
F#|------------------------------------------------|
D |-7--7--7--7--7--7--7--7--10-10-10-10-10-10-10\--|
A |------------------------------------------------|
E |-------------5----------------------------------|
A |------------------------------------------------|

B |-10-10-10-10-10-10-10-10-10-10-10-10-10-10-10-10-|
F#|-------------------------------------------------|
D |-7--7--7--7--7--7--7--7--7--7--7--7--7--7--7--7--|
A |-------------------------------------------------|
E |-------------5-----------------------------------|
A |-------------------------------------------------|

B |-10-10-10-10-10-10-10-10-10-10-10-10-10-10-10-10-|
F#|-------------------------------------------------|
D |-7--7--7--7--7--7--7--7--7--7--7--7--7--7--7--7--|
A |-------------------------------------------------|
E |-------------5-----------------------------------|
A |-------------------------------------------------|

B |-10-10-10-10-10-10-10-10-10-10-10-10-10-10-10-10-|
F#|-------------------------------------------------|
D |-7--7--7--7--7--7--7--7--7--7--7--7--7--7--7--7--|
A |-------------------------------------------------|
E |-------------5-----------------------------------|
A |-------------------------------------------------|

B |-10-10-10-10-10-10-10-10-13-13-13-13-13-13-13-13-|
F#|-------------------------------------------------|
D |-7--7--7--7--7--7--7--7--10-10-10-10-10-10-10-10-|
A |-------------------------------------------------|
E |-------------5-----------------------------------|
A |-------------------------------------------------|

B |-10-10-10-10-10-10-10-10-10-10-10-10-10-10-10-10-|
F#|-------------------------------------------------|
D |-7--7--7--7--7--7--7--7--7--7--7--7--7--7--7--7--|
A |-------------------------------------------------|
E |-------------5-----------------------------------|
A |-------------------------------------------------|

B |-10-10-10-10-10-10-10-10-10-10-10-10-10-10-10-10-|
F#|-------------------------------------------------|
D |-7--7--7--7--7--7--7--7--7--7--7--7--7--7--7--7--|
A |-------------------------------------------------|
E |-------------5-----------------------------------|
A |-------------------------------------------------|

B |-10-10-10-10-10-10-10-10-10-10-10-10-10-10-10-10-|
F#|-------------------------------------------------|
D |-7--7--7--7--7--7--7--7--7--7--7--7--7--7--7--7--|
A |-------------------------------------------------|
E |-------------5-----------------------------------|
A |-------------------------------------------------|

B |-10-10-10-10-10-10-10-10-13-13-13-13---------|
F#|-------------------------------------x-x-x-x-|
D |-7--7--7--7--7--7--7--7--10-10-10-10-x-x-x-x-|
A |-------------------------------------x-x-x-x-|
E |-------------5-----------------------x---x---|
A |---------------------------------------------|

B |-10-10-10-10-10-10-10-10-10-10-10-10-10-10-10-10-|
F#|-------------------------------------------------|
D |-7--7--7--7--7--7--7--7--7--7--7--7--7--7--7--7--|
A |-------------------------------------------------|
E |-------------5-----------------------------------|
A |-------------------------------------------------|

B |-10-10-10-10-10-10-10-10-10-10-10-10-10-10-10-10-|
F#|-------------------------------------------------|
D |-7--7--7--7--7--7--7--7--7--7--7--7--7--7--7--7--|
A |-------------------------------------------------|
E |-------------5-----------------------------------|
A |-------------------------------------------------|

B |-10-10-10-10-10-10-10-10-10-10-10-10-10-10-10-10-|
F#|-------------------------------------------------|
D |-7--7--7--7--7--7--7--7--7--7--7--7--7--7--7--7--|
A |-------------------------------------------------|
E |-------------5-----------------------------------|
A |-------------------------------------------------|

B |-10-10-10-10-10-10-10-10-13-13-13-13-15-15-15-15-|
F#|-------------------------------------x--x--x--x--|
D |-7--7--7--7--7--7--7--7--10-10-10-10-12-12-12-12-|
A |-------------------------------------x--x--x--x--|
E |-------------5-----------------------x-----x-----|
A |-------------------------------------------------|

[Verse 1]
B |-10-10-10-10-10-10-10-10-10-10-10-10-10-10-10-10-|
F#|-------------------------------------------------|
D |-7--7--7--7--7--7--7--7--7--7--7--7--7--7--7--7--|
A |-------------------------------------------------|
E |-------------------------------------------------|
A |-------------------------------------------------|

B |-----------------------------------|-----------------------------------|
F#|-----------------------------------|-----------------------------------|
D |---7-7-7-7-7------7-10-10-12-12-14-|---7-7-7-7-7------7-10-10-12-12-14-|
A |---x-x-x-x-x------x-x--x--x--x--x--|---x-x-x-x-x------x-x--x--x--x--x--|
E |---5-5-5-5-5------5-8--8--10-10-12-|---5-5-5-5-5------5-8--8--10-10-12-|
A |-0-----------0--0------------------|-0-----------0--0------------------|

B |-----------------------------------|-----------------------------------|
F#|-----------------------------------|-----------------------------------|
D |---7-7-7-7-7------7-10-10-12-12-14-|---7-7-7-7-7------7-10-10-12-12-14-|
A |---x-x-x-x-x------x-x--x--x--x--x--|---x-x-x-x-x------x-x--x--x--x--x--|
E |---5-5-5-5-5------5-8--8--10-10-12-|---5-5-5-5-5------5-8--8--10-10-12-|
A |-0-----------0--0------------------|-0-----------0--0------------------|

[Chorus]
B |----------------------------------------|--------------------------------------------|
F#|----------------------------------------|--------------------------------------------|
D |----14-14-14-14-------12-12-12-17-17-17-|---14-14-14-14-14-14-14-10-10-10-10-9-9-9-9-|
A |----x--x--x--x--------x--x--x--x--x--x--|---x--x--x--x--x--x--x--x--x--x--x--x-x-x-x-|
E |----12-12-12-12-------10-10-10-15-15-15-|---12-12-12-12-12-12-12-8--8--8--8--7-7-7-7-|
A |-0--------------0--0--------------------|-0------------------------------------------|

B |------------------------------------------|------------------------------------------------|
F#|------------------------------------------|---15-15-15-15-15-15-15-17-17-17-17-17-17-17-17-|
D |----14-14-14-14------17-17-17-17-17-17-17-|---x--x--x--x--x--x--x--x--x--x--x--x--x--x--x--|
A |----x--x--x--x-------x--x--x--x--x--x--x--|---12-12-12-12-12-12-12-14-14-14-14-14-14-14-14-|
E |----12-12-12-12------15-15-15-15-15-15-15-|------------------------------------------------|
A |-0--------------0--0----------------------|-0----------------------------------------------|

[Verse 2]
(Clean, reverb and delay effects)
B |---10---10~------10~------10~------8~--|-----------------------------------------------|
F#|---------------------------------------|--------10~---------10~---------8~----------8~-|
D |------7~------10~------10~------10~----|-----12~---------12~---------10~--------10~----|
A |-0~------------------------------------|-8~----------8~----------5~---------5~---------|
E |---------------------------------------|-8~----------------------5~--------------------|
A |---------------------------------------|-8~----------------------5~--------------------|

[Pre-chorus]
B |-10-10-10-10-10-10-10-10-10-10-10-10-10-10-10-10-|
F#|-------------------------------------------------|
D |-7--7--7--7--7--7--7--7--7--7--7--7--7--7--7--7--|
A |-------------------------------------------------|
E |-------------5-----------------------------------|
A |-------------------------------------------------|

B |-10-10-10-10-10-10-10-10-10-10-10-10-10-10-10-10-|
F#|-------------------------------------------------|
D |-7--7--7--7--7--7--7--7--7--7--7--7--7--7--7--7--|
A |-------------------------------------------------|
E |-------------5-----------------------------------|
A |-------------------------------------------------|

B |-10-10-10-10-10-10-10-10-10-10-10-10-10-10-10-10-|
F#|-------------------------------------------------|
D |-7--7--7--7--7--7--7--7--7--7--7--7--7--7--7--7--|
A |-------------------------------------------------|
E |-------------5-----------------------------------|
A |-------------------------------------------------|

B |-10-10-10-10-13-13-13-13-15-15-15-15------|
F#|-------------------------------------x-x--|
D |-7--7--7--7--10-10-10-10-12-12-12-12-x-x--|
A |-------------------------------------x-x--|
E |-------------8-----------------------x----|
A |------------------------------------------|

[Chorus]
B |----------------------------------------|--------------------------------------------|
F#|----------------------------------------|--------------------------------------------|
D |----14-14-14-14-------12-12-12-17-17-17-|---14-14-14-14-14-14-14-10-10-10-10-9-9-9-9-|
A |----x--x--x--x--------x--x--x--x--x--x--|---x--x--x--x--x--x--x--x--x--x--x--x-x-x-x-|
E |----12-12-12-12-------10-10-10-15-15-15-|---12-12-12-12-12-12-12-8--8--8--8--7-7-7-7-|
A |-0--------------0--0--------------------|-0------------------------------------------|

B |------------------------------------------|------------------------------------------------|
F#|------------------------------------------|---15-15-15-15-15-15-15-17-17-17-17-17-17-17-17-|
D |----14-14-14-14------17-17-17-17-17-17-17-|---x--x--x--x--x--x--x--x--x--x--x--x--x--x--x--|
A |----x--x--x--x-------x--x--x--x--x--x--x--|---12-12-12-12-12-12-12-14-14-14-14-14-14-14-14-|
E |----12-12-12-12------15-15-15-15-15-15-15-|------------------------------------------------|
A |-0--------------0--0----------------------|-0----------------------------------------------|

B |-------------------------------------------------|
F#|-18-18-18-18-17-17-17-17-15-15-15-15-13-13-13-13-|
D |-x--x--x--x--x--x--x--x--x--x--x--x--x--x--x--x--|
A |-15-15-15-15-14-14-14-14-12-12-12-12-10-10-10-10-|
E |-------------------------------------------------|
A |-------------------------------------------------|

B |-------------------------------------------------|
F#|-10-10-10-10-10-10-10-10-13-13-13-13-13-13-13-13-|
D |-x--x--x--x--x--x--x--x--x--x--x--x--x--x--x--x--|
A |-7--7--7--7--7--7--7--7--10-10-10-10-10-10-10-10-|
E |-------------------------------------------------|
A |-------------------------------------------------|

B |-------------------------------------------------|
F#|-18-18-18-18-17-17-17-17-15-15-15-15-13-13-13-13-|
D |-x--x--x--x--x--x--x--x--x--x--x--x--x--x--x--x--|
A |-15-15-15-15-14-14-14-14-12-12-12-12-10-10-10-10-|
E |-------------------------------------------------|
A |-------------------------------------------------|

B |-------------------------------------------|
F#|-10-10-10-10-10-10-10-10-10-10-8-8-8-6-6-6-|
D |-x--x--x--x--x--x--x--x--x--x--x-x-x-x-x-x-|
A |-7--7--7--7--7--7--7--7--7--7--5-5-5-3-3-3-|
E |-------------------------------------------|
A |-------------------------------------------|

[Bridge]
B |-10-10-10-10-12-12-12-12-12-12-12-12-12-13-13-13-|
F#|-x--x--x--x--x--x--x--x--x--x--x--x--x--x--x--x--|
D |-7--7--7--7--9--9--9--9--9--9--9--9--9--10-10-10-|
A |-------------------------------------------------|
E |-------------------------------------------------|
A |-------------------------------------------------|

B |-10-10-10-10-8-8-8-8-5-5-5-5-8-8-8-8-|
F#|-x--x--x--x--x-x-x-x-x-x-x-x-x-x-x-x-|
D |-7--7--7--7--5-5-5-5-3-3-3-3-5-5-5-5-|
A |-------------------------------------|
E |-------------------------------------|
A |-------------------------------------|

B |-10-10-10-10-12-12-12-12-12-12-12-12-12-13-13-13-|
F#|-x--x--x--x--x--x--x--x--x--x--x--x--x--x--x--x--|
D |-7--7--7--7--9--9--9--9--9--9--9--9--9--10-10-10-|
A |-------------------------------------------------|
E |-------------------------------------------------|
A |-------------------------------------------------|

B |-10-10-10-10-8-8-8-8-5-5-5-5-8-8-8-8-|
F#|-x--x--x--x--x-x-x-x-x-x-x-x-x-x-x-x-|
D |-7--7--7--7--5-5-5-5-3-3-3-3-5-5-5-5-|
A |-------------------------------------|
E |-------------------------------------|
A |-------------------------------------|

B |-12-12-12-12-12-12-12-12-12-12-12-12-12-12-12-12-|
F#|-x--x--x--x--x--x--x--x--x--x--x--x--x--x--x--x--|
D |-9--9--9--9--9--9--9--9--9--9--9--9--9--9--9--9--|
A |-------------------------------------------------|
E |-------------------------------------------------|
A |-------------------------------------------------|

B |-10-10-10-10-8-8-8-8-5-5-5-5-8-8-8-8-|
F#|-x--x--x--x--x-x-x-x-x-x-x-x-x-x-x-x-|
D |-7--7--7--7--5-5-5-5-3-3-3-3-5-5-5-5-|
A |-------------------------------------|
E |-------------------------------------|
A |-------------------------------------|

B |-12-12-12-12-12-12-12-12-12-12-12-12-12-12-12-12-|
F#|-x--x--x--x--x--x--x--x--x--x--x--x--x--x--x--x--|
D |-9--9--9--9--9--9--9--9--9--9--9--9--9--9--9--9--|
A |-------------------------------------------------|
E |-------------------------------------------------|
A |-------------------------------------------------|

B |-10-10-10-10-8-8-8-8-5-5-5-5-8-8-8-8-|
F#|-x--x--x--x--x-x-x-x-x-x-x-x-x-x-x-x-|
D |-7--7--7--7--5-5-5-5-3-3-3-3-5-5-5-5-|
A |-------------------------------------|
E |-------------------------------------|
A |-------------------------------------|

B |-10-10-10-8-8-8-5-5-5-8-8-8-8-8-8-8-|-10-10-10---------------0---0---------|
F#|-x--x--x--x-x-x-x-x-x-x-x-x-x-x-x-x-|-x--x--x--10-8-8-8-8--6---6---5---1/3-|
D |-7--7--7--5-5-5-3-3-3-5-5-5-5-5-5-5-|-7--7--7--x--x-x-x-x------------------|
A |------------------------------------|----------7--5-5-5-5------------------|
E |------------------------------------|--------------------------------------|
A |------------------------------------|--------------------------------------|

B |-10-10-10-8-8-8-5-5-5-8-8-8-8-8-8-8-|-13-13-13-------------------0---0-----1h3-|
F#|-x--x--x--x-x-x-x-x-x-x-x-x-x-x-x-x-|-x--x--x--13-10-10-10-10--6---6---5-------|
D |-7--7--7--5-5-5-3-3-3-5-5-5-5-5-5-5-|-10-10-10-x--x--x--x--x-------------------|
A |------------------------------------|----------10-5--5--5--5-------------------|
E |------------------------------------|------------------------------------------|
A |------------------------------------|------------------------------------------|

(Clean, reverb, light delay)
B |-/15~-------------|------------|-------------|-------------------|
F#|---------6--8--5~-|-------8~---|--------13~--|-11~---8~--6~------|
D |------------------|-3~---------|-(7)---------|-------------------|
A |------------------|------------|-------------|--------------5/.--|
E |------------------|------------|-------------|--------------5/.--|
A |------------------|------------|-(5)---------|--------------5/.--|

[Pre-chorus]
B |---------------------------------|--------------------------------|
F#|---------------------------------|--------------------------x-----|
D |---------------------------------|--------------------------x--x--|
A |-0-0-----0-----0---0-----0-0---0-|-0-----0-0---0-----0-0----x--x--|
E |-0-0-0-0-0-0-0-0-0-0-0-0-0-0-0-0-|-0-0-0-0-0-0-0-0-0-0-0-0--x--x--|
A |-0-0-0-0-0-0-0-0-0-0-0-0-0-0-0-0-|-0-0-0-0-0-0-0-0-0-0-0-0--x-----|

[Chorus]
B |----------------------------------------|--------------------------------------------|
F#|----------------------------------------|--------------------------------------------|
D |----14-14-14-14-------12-12-12-17-17-17-|---14-14-14-14-14-14-14-10-10-10-10-9-9-9-9-|
A |----x--x--x--x--------x--x--x--x--x--x--|---x--x--x--x--x--x--x--x--x--x--x--x-x-x-x-|
E |----12-12-12-12-------10-10-10-15-15-15-|---12-12-12-12-12-12-12-8--8--8--8--7-7-7-7-|
A |-0--------------0--0--------------------|-0------------------------------------------|

B |------------------------------------------|------------------------------------------------|
F#|------------------------------------------|---15-15-15-15-15-15-15-17-17-17-17-17-17-17-17-|
D |----14-14-14-14------17-17-17-17-17-17-17-|---x--x--x--x--x--x--x--x--x--x--x--x--x--x--x--|
A |----x--x--x--x-------x--x--x--x--x--x--x--|---12-12-12-12-12-12-12-14-14-14-14-14-14-14-14-|
E |----12-12-12-12------15-15-15-15-15-15-15-|------------------------------------------------|
A |-0--------------0--0----------------------|-0----------------------------------------------|
    PM~                   ~|
B |------------------------------|-10-10-10-10-10-10-10-10-10-10-10-10-10-10-10-10-|
F#|------------------------------|-x--x--x--x--x--x--x--x--x--x--x--x--x--x--x--x--|
D |------------------------------|-7--7--7--7--7--7--7--7--7--7--7--7--7--7--7--7--|
A |-------------------------10~--|-------------------------------------------------|
E |-3-3-3-3-5-5-5-5-7-7-7-7-10~--|-------------------------------------------------|
A |-3-3-3-3-5-5-5-5-7-7-7-7-10~--|-------------------------------------------------|

B |-10-10-10-10-10-10-10-10-12-12-12-12-12-12-12-12-|
F#|-x--x--x--x--x--x--x--x--x--x--x--x--x--x--x--x--|
D |-7--7--7--7--7--7--7--7--9--9--9--9--9--9--9--9--|
A |-------------------------------------------------|
E |-------------------------------------------------|
A |-------------------------------------------------|

B |-10-10-10-10-10-10-10-10-------------8-8-8-8-|
F#|-x--x--x--x--x--x--x--x--10-10-10-10-x-x-x-x-|
D |-7--7--7--7--7--7--7--7--x--x--x--x--5-5-5-5-|
A |-------------------------7--7--7--7----------|
E |---------------------------------------------|
A |---------------------------------------------|

B |-10-10-10-10-12-12-12-12-12-12-12-12-12-13-13-13-|
F#|-x--x--x--x--x--x--x--x--x--x--x--x--x--x--x--x--|
D |-7--7--7--7--9--9--9--9--9--9--9--9--9--10-10-10-|
A |-------------------------------------------------|
E |-------------------------------------------------|
A |-------------------------------------------------|

B |-10-10-10-10-8-8-8-8-5-5-5-5-8-8-8-8-|
F#|-x--x--x--x--x-x-x-x-x-x-x-x-x-x-x-x-|
D |-7--7--7--7--5-5-5-5-3-3-3-3-5-5-5-5-|
A |-------------------------------------|
E |-------------------------------------|
A |-------------------------------------|

B |-10-10-10-10-12-12-12-12-12-12-12-12-12-13-13-13-|
F#|-x--x--x--x--x--x--x--x--x--x--x--x--x--x--x--x--|
D |-7--7--7--7--9--9--9--9--9--9--9--9--9--10-10-10-|
A |-------------------------------------------------|
E |-------------------------------------------------|
A |-------------------------------------------------|

B |-10-10-10-10-8-8-8-8-5-5-5-5-8-8-8-8-|
F#|-x--x--x--x--x-x-x-x-x-x-x-x-x-x-x-x-|
D |-7--7--7--7--5-5-5-5-3-3-3-3-5-5-5-5-|
A |-------------------------------------|
E |-------------------------------------|
A |-------------------------------------|

[Outro]
B |---8-8-10-10-10-------18-18-17-17-17-17-|---13-13-13-13-13------8-8-8-8-8-8-8-|
F#|---x-x-x--x--x--------x--x--x--x--x--x--|---x--x--x--x--x-------x-x-x-x-x-x-x-|
D |---5-5-7--7--7--------15-15-14-14-14-14-|---10-10-10-10-10------5-5-5-5-5-5-5-|
A |----------------------------------------|-------------------------------------|
E |----------------------------------------|-------------------------------------|
A |-0--------------0--0--------------------|-0----------------0--0---------------|

B |---13-13-12-12-12-------18-18-17-17-17-17-|---13-13-13-13-13------8-8-8-8-8-8-8-|
F#|---x--x--x--x--x--------x--x--x--x--x--x--|---x--x--x--x--x-------x-x-x-x-x-x-x-|
D |---10-10-9--9--9--------15-15-14-14-14-14-|---10-10-10-10-10------5-5-5-5-5-5-5-|
A |------------------------------------------|-------------------------------------|
E |------------------------------------------|-------------------------------------|
A |-0----------------0--0--------------------|-0----------------0--0---------------|

B |-10~-|
F#|-x---|
D |-7~--|
A |-0~--|
E |-0~--|
A |-0~--|            
Submit corrections


        Asleep lessons Hard to play? Try these video lessons and learn fast Asleep lessons
        
↑ Back to top | Tablatures and chords for acoustic guitar and electric guitar, ukulele, drums are parodies/interpretations of the original songs. You may use it for private study, scholarship, research or language learning purposes only