Home » W » Wolfgang Amadeus Mozart »

Wolfgang Amadeus Mozart - Turkish March Tabs

Artists:  A B C D E F G H I J K L M N O P Q R S T U V W X Y Z # 

Turkish March Tabs

(ver. 1) Click to play this song!
Wolfgang Amadeus Mozart
 Rating:
4/5 (4 votes)
                Here is the first part of Turkish March by Mozart.
I used sheet music to figure much of it out, so if you are able to play some of
this...GIVE ME LESSONS!!!
Otherwise, just play the melody and have someone else play the bass.
Here's how the first part goes:
part one, two, one, two, three, one, four, three, one, four, five.
Enjoy, and God bless :)

-|------------------------------12----------------19-17-16-17-19-17-15-17-20-|
-|12----------13----15-13-12-13-------18-17-16-17----------------------------|
-|---14-13-14----------------------------------------------------------------|
-|---------------------------------------------------------------------------|
-|---------------------------------------------------------------------------|
-|---------------------------------------------------------------------------|
  part one

-|17-20-17/19--17-15-17---17/19--17-15-17---17/19--17-15-13-12---------------|
-|-------------19-17-19----------19-17-19----------19-17-15------------------|
-|---------------------------------------------------------------------------|
-|---------------------------------------------------------------------------|
-|---------------------------------------------------------------------------|
-|---------------------------------------------------------------------------|
 part two

-|------15-15-17-15----------------------15-15-17-15--------------------------|
-|17-18-17-17-------18-17-15-------17-18-17-17-------18-17-15-----------------|
-|17-19-------------------16-------17-19-------------------16-----------------|
-|----------------------------------------------------------------------------|
-|----------------------------------------------------------------------------|
-|----------------------------------------------------------------------------|
 part three

--------12-12-13-12----------------------12-12-13-12-------------------------|
--13-15-13-13-------15-13-12-------13-15-13-13-------15-13-12----------------|
--14-16-------------------13-------14-16-------------------13----------------|


-|17--19--20--19--17--16--17-------------------------------------------------|
-|----------------------------17--18--15--13---12h13p12-12h13p12-------------|
-|---------------------------------------------------------------14----------|
-|---------------------------------------------------------------------------|
-|---------------------------------------------------------------------------|
-|---------------------------------------------------------------------------|
 part four

-|--------9--------------9----------------------------------------------------|
-|10--12---------10--12--------12--10--9-------9---10--12--9------------------|
-|-----------------------------------------11------------------9--------------|
-|----9---11---------9---11----9-----------------------9----------------------|
-|12-------------12----------------12--11--9---11--12------11-----------------|
-|-------------------------------------------------------------12-------------|
 part five

----------9--------------9---------------------------------------------------|
--10--12---------10--12--------12--10--9-------12--9-------10----------------|
-------------------------------------------11----------9---------------------|
------9---11---------9---11----9---------------9-----------------------------|
--12-------------12----------------12--11--9-------11------12----------------|
-------------------------------------------------------12--------------------|
            
Submit corrections

↑ Back to top | Tablatures and chords for acoustic guitar and electric guitar, ukulele, drums are parodies/interpretations of the original songs. You may use it for private study, scholarship, research or language learning purposes only