» » »

Woe Is Me - On Veiled Men Tabs

Artists:  A B C D E F G H I J K L M N O P Q R S T U V W X Y Z # 

On Veiled Men Tabs

(ver. 2) Click to play this song!
Woe Is Me
 Rating:
4/5 (4 votes)

 On Veiled Men lessons Tabs too difficult? Try these video lessons and learn fast
 
                ---------------------------------------------------------------------------------------------------
                                    WOE, IS ME - "On Veiled Men"       
---------------------------------------------------------------------------------------------------

Band: Woe, Is Me
Track: 1


Tuning: Drop C (CGCFAD)



[0:17 - 0:23]

   Guitar 1
D|----------------------------------------------|-------------------------------------------|
A|----------------------------------------------|-------------------------------------------|
F|----------------------------------------------|-------------------------------------------|
C|----------------------------------------------|-------------------------------------------|
G|--0-0-0-0---0-0-0-0-0---0---0-0-0-0-0---0--0--|--0-0-0-0---0-0-0-0-0---0---0-0-0-0-0---0--|
C|--0-0-0-0---0-0-0-0-0---0---0-0-0-0-0---0--0--|--0-0-0-0---0-0-0-0-0---0---0-0-0-0-0---0--|
    . . . .   . . . . .   .   . . . . .   .  .     . . . .   . . . . .   .   . . . . .   .

   Guitar 2
D|---------------------------------------------------|---------------------------------------------|
A|---------------------------------------------------|---------------------------------------------|
F|---------------------------------------------------|---------------------------------------------|
C|---------------------------------------------------|---------------------------------------------|
G|---------------------------------------------------|---------------------------------------------|
C|-1-1-1-1~---0-0-0-0-0~---0~---0-0-0-0-0~---0--0--0-|-1-1-1-1~---0-0-0-0-0~---0~---0-0-0-0-0~---0-|



[0:24 - 0:29]

   Guitar 1
D|----------------------------------------------|---------------------------------------|
A|----------------------------------------------|---------------------------------------|
F|----------------------------------------------|---------------------------------------|
C|----------------------------------------------|---------------------------------------|
G|--0-0-0-0---0-0-0-0-0---0---0-0-0-0-0---0--0--|--0-0-0-0---0-0-0-0-0---0---0-0-0-0-0--|
C|--0-0-0-0---0-0-0-0-0---0---0-0-0-0-0---0--0--|--0-0-0-0---0-0-0-0-0---0---0-0-0-0-0--|
    . . . .   . . . . .   .   . . . . .   .  .     . . . .   . . . . .   .   . . . . .

   Guitar 2
D|----------------------------------------------|---------------------------------------|
A|----------------------------------------------|---------------------------------------|
F|----------------------------------------------|---------------------------------------|
C|----------------------------------------------|---------------------------------------|
G|----------------------------------------------|---------------------------------------|
C|--0-0-0-0---0-0-0-0-0---0---0-0-0-0-0---0--0--|--0-0-0-0---0-0-0-0-0---0---0-0-0-0-0--|



[0:30 - 0:36]

D|----------------------------------------|----------------------------------|
A|----------------------------------------|----------------------------------|
F|----------------------------------------|----------------------------------|
C|----------------------------------------|----------------------------------|
G|--0-0-0-0~-0~-0~-0----------------3-----|--0~-0~-0~-0~-0-------------------|
C|--1-1-1-1~-1~-1~-1---1--0--1---0-----1--|--1~-1~-1~-1~-1---/4---1---1-0-0--|
    . . . .  .  .  .                         .  .  .  .  .



[0:37 - 0:50]

D|----------------------------------------|---------------------------|
A|----------------------------------------|---------------------------|
F|----------------------------------------|----------Pickslide--------|
C|----------------------------------------|--0~-----------------0~----|
G|--0~-0~-0~-0~-0~------0~-0~-0~-0~-0~----|--0~---------\\\\\\--0~----|
C|--1~-1~-1~-1~-1~------1~-1~-1~-1~-1~----|--0~---------\\\\\\--0~----|
    .  .  .  .  .       .  .  .  .  .



[END]



************************************

| .   palm mute
| ~   held note
| /   slide up

************************************
            
Submit corrections


        On Veiled Men lessons Hard to play? Try these video lessons and learn fast On Veiled Men lessons
        
↑ Back to top | Tablatures and chords for acoustic guitar and electric guitar, ukulele, drums are parodies/interpretations of the original songs. You may use it for private study, scholarship, research or language learning purposes only