» » »

Witt Lowry - Rescue Tabs

Artists:  A B C D E F G H I J K L M N O P Q R S T U V W X Y Z # 

Rescue Tabs

(ver. 1) Click to play this song!
Witt Lowry
 Rating:
2.6/5 (29 votes)

 Rescue  lessons Tabs too difficult? Try these video lessons and learn fast
 
                Tuning: EADGCe
Capo: 4, leaving the e open.

Verse 1 (Strummed)
      C    F    Am
e|----0----0----0----0-------------------------------------------------------|
C|----0----0----0----0-------------------------------------------------------|
G|----0----0----0----0-------------------------------------------------------|
D|----2----3----2----2-------------------------------------------------------| This repeats throughout
A|----3----5----0----0-------------------------------------------------------| the verse
E|----x----x----x----x-------------------------------------------------------|

Last Chord Prog before Hook              
      C    F    Am   G
e|----0----0----0----0----0-0-0-0--------------------------------------------|
C|----0----0----0----0----0-0-0-0--------------------------------------------|
G|----0----0----0----0----4-0-4-5--------------------------------------------| The last part of the verse
D|----2----3----2----0----0-0-0-0--------------------------------------------| before the hook adds a G
A|----3----5----0----2----2-2-2-2--------------------------------------------|
E|----x----x----x----3----3-3-3-3--------------------------------------------|

Hook (Strummed)
      F    Am   G    G
e|----0----0----0----0-------------------------------------------------------| Repeats for each Hook/Chorus
C|----0----0----0----0-------------------------------------------------------|
G|----2----5----4----4-------------------------------------------------------| The G's(4-0-4-5)(as seen above)
D|----3----7----5----5-------------------------------------------------------| lick is played occasionally at
A|----3----7----5----5-------------------------------------------------------| the end of every G chord
E|----1----5----3----3-------------------------------------------------------|

Verse 2
      C               F               Am              Am
e|---------------------------------------------------------------------------|
B|--------------0---------------0---------------0---------------0------------| Second Verse is finger picked
G|--------0-------0-------0-------0-------0-------0-------0-------0----------| Repeats 
D|------2-----2-----2---3-----3-----3---2-----2-----2---2-----2-----2--------|
A|----3-----3---------5-----5---------0-----0---------0-----0----------------|
E|---------------------------------------------------------------------------|
      G      (Repeats 3 times and on fourth adds the lick)
e|---------------------------------------------------------------------------|
B|---------------0---------------------------0-------------------------------| Last chord before hook is a G
G|---------0-------0---------------------0-4---------------------------------|
D|-------------0-----0-------------------------------------------------------|
A|------2----2-------------------------2-------------------------------------|
E|----3------------------------------3---------------------------------------|

Hook Melody/Outro
e|---------------------------------------------------------------------------|
B|------7-------------------------7------------------------------------------|
G|----5---5-7h9-7--7-9-10-9-7-5-----5-7h9-7---4-5----------------------------|
D|------------------------------------------7--------------------------------|
A|---------------------------------------------------------------------------|
E|---------------------------------------------------------------------------|

e|---------------------------------------------------------------------------|
B|------7-----------------------------7--------------------------------------|
G|--------5-7h9-7--7-9-10-9-7h9p7\5-----5-7h9-7--7-9-10-9-7-9-7--------------|
D|-------------------------------------------------------------10-9-10-------|
A|---------------------------------------------------------------------------|
E|---------------------------------------------------------------------------|
            
Submit corrections


        Rescue  lessons Hard to play? Try these video lessons and learn fast Rescue  lessons
        
↑ Back to top | Tablatures and chords for acoustic guitar and electric guitar, ukulele, drums are parodies/interpretations of the original songs. You may use it for private study, scholarship, research or language learning purposes only