» » »

With Confidence - Stand Again Tabs

Artists:  A B C D E F G H I J K L M N O P Q R S T U V W X Y Z # 

Stand Again Tabs

(ver. 1) Click to play this song!
With Confidence
 Rating:
4.4/5 (5 votes)

 Stand Again lessons Tabs too difficult? Try these video lessons and learn fast
 
                [Intro]

Guitar 1
e|----------------------2x-|------------------------|
B|-------------------------|------------------------|
G|-------------------------|------------------------|
D|-5-----8-----1-----3-----|-5~---------------------|
A|-5--x8-8--x8-1--x8-3--x8-|-5~---------------------|
D|-5-----8-----1-----3-----|-5~---------------------|

Guitar 2
e|----------------------------------------------------------------------2x-|---------|
B|-11--11--11--11--11/13-15--15--15--15--11--11--11--11--10--10--10--10----|---------|
G|---12--12--12--12--------15--15--15--15--12--12--12--12--12--12--12--12--|-(12~~~)-|
D|-------------------------------------------------------------------------|---------|
A|-------------------------------------------------------------------------|---------|
D|-------------------------------------------------------------------------|---------|

[Verse/Prechorus]

Guitar 1
e|----------------------2x-|-----------|
B|-------------------------|-----------|
G|-------------------------|-----------|
D|-------------------------|-----------|
A|-5--x8-8--x8-1--x8-3--x8-|-5------xx-|
D|-5-----8-----1-----3-----|-5--x16-xx-|
   *     *     *     *
Guitar 2
e|--------------|------------------------------------------1.-|----------------------------------------2.-||
B|--------------|---------------------------------------------|-------------------------------------------||
G|---10\7---3/5-|-7---10\7---3/5-7---3/5---3/5-7\5-5-5\3-3-2~-|-10--10\7---3/5-7---3/5---7\5-5-3-3-2-2-2~-||
D|--------------|---------------------------------------------|-------------------------------------------||
A|---8\-5---1/3-|-5---8\-5---1/3-5---1/3---1/3-5\3-3-3\1-1-0~-|-8---8\-5---1/3-5---1/3---5\5-3-1-1-0-0-0~-||
D|--------------|---------------------------------------------|-------------------------------------------||

[Chorus]

Guitar 1, 2x
e|-----------------------------------------------------------|
B|-----------------------------------------------------------|
G|--------3----------------------------3---------------------|
D|-1------3--x8-3-3-3-3-3-5-5~\-1------3--x8-3-3-3-3-3-------|
A|-1--x16-1-----3-3-3-3-3-5-5~\-1--x16-1-----3-3-3-3-3-------|
D|-1------------3-3-3-3-3-5-5~\-1------------3-3-3-3-3-5~~~\-|

Guitar 2, 2x
e|-----------------13-------10---------------10~--------------13~-11~----|
B|-----11h13-11--11----11-13--11--11-------11----13~--------11-----------|
G|-10~---------10----10---------12--12-10~-----------10h12~-----------12-|
D|-----------------------------------------------------------------------|
A|-----------------------------------------------------------------------|
D|-----------------------------------------------------------------------|

[Re-intro]

Guitar 1
e|----------------------2x-|
B|-------------------------|
G|-------------------------|
D|-5-----8-----1-----3-----|
A|-5--x8-8--x8-1--x8-3--x8-|
D|-5-----8-----1-----3-----|

Guitar 2
e|----------------------------------------------------------------------2x-|---------|
B|-11--11--11--11--11/13-15--15--15--15--11--11--11--11--10--10--10--10----|---------|
G|---12--12--12--12--------15--15--15--15--12--12--12--12--12--12--12--12--|-(12~~~)-|
D|-------------------------------------------------------------------------|---------|
A|-------------------------------------------------------------------------|---------|
D|-------------------------------------------------------------------------|---------|

[Verse 2]

Guitar 1
e|----------------------3x-|-------------------------|
B|-------------------------|-------------------------|
G|-------------------------|-------------------------|
D|-------------------------|-------------------.---.-|
A|-5--x8-8--x8-1--x8-3--x8-|-5--x8-8--x8-1--x8-3---3-|
D|-5-----8-----1-----3-----|-5-----8-----1-----3---3-|
   *     *     *     *       *     *     *
Guitar 2
e|-----------------------------------------------------|--------------1.-|-----2.-||
B|-----------------------------------------------------|-----------------|-.------||
G|-10---10\7---7\5---10---10\7---7\5---3---3/5---3/7---|-7\5-5-5\3-3-2~--|-5------||
D|-----------------------------------------------------|-----------------|--------||
A|-8----8\-5---5\3---8----8\-5---5\3---1---1/3---1/5---|-5\3-3-3\1-1-0~--|-3---xx-||
D|-----------------------------------------------------|-----------------|-----xx-||

[Bridge]

Guitar 1
e|----------------------------------------------2x-|
B|-------------------------------------------------|
G|-------------------------------------------------|
D|-1-1-1-3-3-3-5-5-5-8-----1-1-1-3-3-3-5-5-5-3-----|
A|-1-1-1-3-3-3-5-5-5-8--x7-1-1-1-3-3-3-5-5-5-3--x7-|
D|-1-1-1-3-3-3-5-5-5-8-----1-1-1-3-3-3-5-5-5-3-----|

Guitar 2
e|-------------------------|----1.-|----2.-||-------------------|--------------1.-|--------------2.-||
B|-------------------------|-------|-------||-------------------|-----------------|-----------------||
G|-8-8-8-10-10-10-12-12-12-|-15----|-10----||-15-15-15-14-14-14-|-12-12-12-10-----|-15-15-15-17-----||
D|-------------------------|----x7-|----x7-||-------------------|--------------x7-|--------------x7-||
A|-6-6-6-8--8--8--10-10-10-|-13----|-8-----||-13-13-13-12-12-12-|-10-10-10-8------|-13-13-13-15-----||
D|-------------------------|-------|-------||-------------------|-----------------|-----------------||


e|----------------------------------------------------------------------------------------------------------|
B|---------------------------------------------------------------------------------------------(pickscr*pe)-|
G|---------------------------------------------------------------------------------------------.------------|
D|-1-----xx-8~-8-----3-3-3-3-3-5-3-5\-1------8-----3-------------1~----8~----3~----1~----8~----3--\\\-------|
A|-1-----xx-8~-8--x6-3-3-3-3-3-5-3-5\-1--x16-8--x8-3--x6-(pause)-1~-x8-8~-x4-3~-x4-1~-x8-8~-x4-3--\\\-------|
D|-1-----xx-8~-8-----3-3-3-3-3-5-3-5\-1------8-----3-------------1~----8~----3~----1~----8~----3--\\\-------|

[Ontro]

Guitar 1
e|----------------------2x-|
B|-------------------------|
G|-------------------------|
D|-5-----8-----1-----3-----|
A|-5--x8-8--x8-1--x8-3--x8-|
D|-5-----8-----1-----3-----|

Guitar 2
e|----------------------------------------------------------------------2x-|
B|-11--11--11--11--11/13-15--15--15--15--11--11--11--11--10--10--10--10----|
G|---12--12--12--12--------15--15--15--15--12--12--12--12--12--12--12--12--|
D|-------------------------------------------------------------------------|
A|-------------------------------------------------------------------------|
D|-------------------------------------------------------------------------|

[Outro Pt. 2]

Guitar 1
e|-------------------------------------------------|
B|-------------------------------------------------|
G|-------------------------------------------------|
D|-1~----------------------------------------------|
A|-1~----------------------------------------------|
D|-1~----------------------------------------------|

Guitar 2
e|-------------------------------------------------|
B|-11~------11~-10--10--10--10---------------------|
G|----------------12--12--12--12~------------------|
D|-------------------------------------------------|
A|-------------------------------------------------|
D|-------------------------------------------------|            
Submit corrections


        Stand Again lessons Hard to play? Try these video lessons and learn fast Stand Again lessons
        
↑ Back to top | Tablatures and chords for acoustic guitar and electric guitar, ukulele, drums are parodies/interpretations of the original songs. You may use it for private study, scholarship, research or language learning purposes only