» » »

With Confidence - Poison Tabs

Artists:  A B C D E F G H I J K L M N O P Q R S T U V W X Y Z # 

Poison Tabs

(ver. 1) Click to play this song!
With Confidence
 Rating:
4.3/5 (15 votes)

 Poison lessons Tabs too difficult? Try these video lessons and learn fast
 
                [Intro]
D#|---------------------------------------------------------------------------|
A#|---------------------------------------------------------------------------|
F#|--xx-9-9---8-9-11-9-----xx-9-9----8-9-11-12--------------------------------|
C#|---------------------------------------------------------------------------|
G#|--xx-7-7---6-7-9--7-----xx-7-7----6-8-9--10--------------------------------|
C#|---------------------------------------------------------------------------|

D#|---------------------------------------------------------------------------|
A#|---------------------------------------------------------------------------|
F#|--xx-9-9---8-9-11-9-----xx--x--9--x-x--9--8--x--11-------------------------|
C#|---------------------------------------------------------------------------|
G#|--xx-7-7---6-7-9--7-----xx--x--7--x-x--7--6--x--9--------------------------|
C#|---------------------------------------------------------------------------|

D#|---------------------------------------------------------------------------|
A#|-9--9---7--9--10--9----9--9---7-9-10--12-----------------------------------|
F#|---------------------------------------------------------------------------|
C#|---------------------------------------------------------------------------|
G#|---------------------------------------------------------------------------|
C#|---------------------------------------------------------------------------|

D#|---------------------------------------------------------------------------|
A#|--9--9---7--9--10--9---xx--x-9---x--9--9-x-7--x-9--------------------------|
F#|---------------------------------------------------------------------------|
C#|---------------------------------------------------------------------------|
G#|---------------------------------------------------------------------------|
C#|---------------------------------------------------------------------------|

[Verse]
D#|---------------------------------------------------------------------------|
A#|---------------------------------------------------------------------------|
F#|-----------------------------9------9--------------------------------------|
C#|-11---11------7-----7-7------9------9-----9--------9---9-------------------| 3 times
G#|-11---11------7-----7-7------7------7-----9--------9---9-------------------|
C#|-11---11------7-----7-7-------------------9--------9---9-------------------|

D#|---------------------------------------------------------------------------|
A#|---------------------------------------------------------------------------|
F#|---------------------------------------------------------------------------|
C#|-11---11------7-----7-7-----9-------9----9--------9---9--------------------|
G#|-11---11------7-----7-7-----9-------9----9--------9---9--------------------|
C#|-11---11------7-----7-7-----9-------9----9--------9---9--------------------|

[PreChorus]
D#|---------------------------------------------------------------------------|
A#|---------------------------------------------------------------------------|
F#|------------------------------9--------------------------------------------|
C#|-11------------7--------------9-----------------9-9-9-9--------------------|
G#|-11------------7--------------7-----------------9-9-9-9--------------------|
C#|-11------------7--------------------------------9-9-9-9--------------------|

[Chorus]
D#|---------------------------------------------------------------------------|
A#|---------------------------------------------------------------------------|
F#|---------------9------9---9------------------------------------------------|
C#|-7------7-7----9------9---9---9-----9-9-----11-----11---11-----------------|
G#|-7------7-7----7------7---7---9-----9-9-----11-----11---11-----------------|
C#|-7------7-7-------------------9-----9-9-----11-----11---11-----------------|

D#|---------------------------------------------------------------------------|
A#|---------------------------------------------------------------------------|
F#|--------------9------9---9-------------------------------------------------|
C#|-7------7-7---9------9---9----9-----9-9-----9-----9-9----------------------|
G#|-7------7-7---7------7---7----9-----9-9-----9-----9-9----------------------|
C#|-7------7-7-------------------9-----9-9-----9-----9-9----------------------|

D#|---------------------------------------------------------------------------|
A#|---------------------------------------------------------------------------|
F#|---------------9------9---9------------------------------------------------|
C#|-7------7-7----9------9---9---9-----9-9-----11-----11---11-----------------|
G#|-7------7-7----7------7---7---9-----9-9-----11-----11---11-----------------|
C#|-7------7-7-------------------9-----9-9-----11-----11---11-----------------|

D#|---------------------------------------------------------------------------|
A#|---------------------------------------------------------------------------|
F#|--------------9------9---9-------------------------------------------------|
C#|-7------7-7---9------9---9----9-----9-9-----9-----9-9----7-----------------|
G#|-7------7-7---7------7---7----9-----9-9-----9-----9-9----7-----------------|
C#|-7------7-7-------------------9-----9-9-----9-----9-9----7-----------------|

[Verse 2]
D#|--12p9------12p9------12p9-------14p9--12p9--------------------------------|
A#|-------12p9------12p9------12p9--------------------------------------------|
F#|---------------------------------------------------------------------------| 4 times
C#|---------------------------------------------------------------------------|
G#|---------------------------------------------------------------------------|
C#|---------------------------------------------------------------------------|

[PreChorus]
D#|---------------------------------------------------------------------------|
A#|---------------------------------------------------------------------------|
F#|------------------------------9--------------------------------------------|
C#|-11------------7--------------9-----------------9--------------------------|
G#|-11------------7--------------7-----------------9--------------------------|
C#|-11------------7--------------------------------9--------------------------|

D#|---------------------------------------------------------------------------|
A#|---------------------------------------------------------------------------|
F#|------------------------------9--------------------------------------------|
C#|-11------------7--------------9-----------------9-9-9-9--------------------|
G#|-11------------7--------------7-----------------9-9-9-9--------------------|
C#|-11------------7--------------------------------9-9-9-9--------------------|

[Chorus]
D#|---------------------------------------------------------------------------|
A#|---------------------------------------------------------------------------|
F#|---------------9------9---9------------------------------------------------|
C#|-7------7-7----9------9---9---9-----9-9-----11-----11---11-----------------|
G#|-7------7-7----7------7---7---9-----9-9-----11-----11---11-----------------|
C#|-7------7-7-------------------9-----9-9-----11-----11---11-----------------|

D#|---------------------------------------------------------------------------|
A#|---------------------------------------------------------------------------|
F#|--------------9------9---9-------------------------------------------------|
C#|-7------7-7---9------9---9----9-----9-9-----9-----9-9----------------------|
G#|-7------7-7---7------7---7----9-----9-9-----9-----9-9----------------------|
C#|-7------7-7-------------------9-----9-9-----9-----9-9----------------------|

D#|---------------------------------------------------------------------------|
A#|---------------------------------------------------------------------------|
F#|---------------9------9---9------------------------------------------------|
C#|-7------7-7----9------9---9---9-----9-9-----11-----11---11-----------------|
G#|-7------7-7----7------7---7---9-----9-9-----11-----11---11-----------------|
C#|-7------7-7-------------------9-----9-9-----11-----11---11-----------------|

D#|---------------------------------------------------------------------------|
A#|---------------------------------------------------------------------------|
F#|--------------9------9---9-------------------------------------------------|
C#|-7------7-7---9------9---9----9-----9-9-----9-----9-9----7-----------------|
G#|-7------7-7---7------7---7----9-----9-9-----9-----9-9----7-----------------|
C#|-7------7-7-------------------9-----9-9-----9-----9-9----7-----------------|

[Bridge] 
D#|---------------------------------------------------------------------------|
A#|---------------------------------------------------------------------------|
F#|----------------4-4-4-4-4-4---2-2-2-2-2-2---2-2-2-2-2-2--------------------|
C#|-2-2-2-2-2-2----4-4-4-4-4-4---2-2-2-2-2-2---2-2-2-2-2-2--------------------|
G#|-2-2-2-2-2-2----2-2-2-2-2-2---0-0-0-0-0-0---0-0-0-0-0-0--------------------|
C#|-2-2-2-2-2-2---------------------------------------------------------------|

D#|---------------------------------------------------------------------------|
A#|---------------------------------------------------------------------------|
F#|----------------4-4-4-4-4-4---2-2-2-2-2-2---2-2-2-2-2-2--------------------|
C#|-2-2-2-2-2-2----4-4-4-4-4-4---2-2-2-2-2-2---2-2-2-2-2-2--------------------|
G#|-2-2-2-2-2-2----2-2-2-2-2-2---0-0-0-0-0-0---0-0-0-0-0-0--------------------|
C#|-2-2-2-2-2-2---------------------------------------------------------------|

D#|---------------------------------------------------------------------------|
A#|---------------------------------------------------------------------------|
F#|----------------4-4-4-4-4-4------------------------------------------------|
C#|-2-2-2-2-2-2----4-4-4-4-4-4------------------------------------------------|
G#|-2-2-2-2-2-2----2-2-2-2-2-2------------------------------------------------|
C#|-2-2-2-2-2-2---------------------------------------------------------------|

[Chorus]
D#|---------------------------------------------------------------------------|
A#|---------------------------------------------------------------------------|
F#|---------------9------9---9------------------------------------------------|
C#|-7------7-7----9------9---9---9-----9-9-----11-----11---11-----------------|
G#|-7------7-7----7------7---7---9-----9-9-----11-----11---11-----------------|
C#|-7------7-7-------------------9-----9-9-----11-----11---11-----------------|

D#|---------------------------------------------------------------------------|
A#|---------------------------------------------------------------------------|
F#|--------------9------9---9-------------------------------------------------|
C#|-7------7-7---9------9---9----9-----9-9-----9-----9-9----------------------|
G#|-7------7-7---7------7---7----9-----9-9-----9-----9-9----------------------|
C#|-7------7-7-------------------9-----9-9-----9-----9-9----------------------|

D#|---------------------------------------------------------------------------|
A#|---------------------------------------------------------------------------|
F#|---------------9------9---9------------------------------------------------|
C#|-7------7-7----9------9---9---9-----9-9-----11-----11---11-----------------|
G#|-7------7-7----7------7---7---9-----9-9-----11-----11---11-----------------|
C#|-7------7-7-------------------9-----9-9-----11-----11---11-----------------|

D#|---------------------------------------------------------------------------|
A#|---------------------------------------------------------------------------|
F#|--------------9------9---9-------------------------------------------------|
C#|-7------7-7---9------9---9----9-----9-9-----9-----9-9----------------------|
G#|-7------7-7---7------7---7----9-----9-9-----9-----9-9----------------------|
C#|-7------7-7-------------------9-----9-9-----9-----9-9----------------------|

D#|---------------------------------------------------------------------------|
A#|---------------------------------------------------------------------------|
F#|---------------9------9---9------------------------------------------------|
C#|-7------7-7----9------9---9---9-----9-9-----11-----11---11-----------------|
G#|-7------7-7----7------7---7---9-----9-9-----11-----11---11-----------------|
C#|-7------7-7-------------------9-----9-9-----11-----11---11-----------------|

D#|---------------------------------------------------------------------------|
A#|---------------------------------------------------------------------------|
F#|--------------9------9---9-------------------------------------------------|
C#|-7------7-7---9------9---9----9-----9-9-----9-----9-9----------------------|
G#|-7------7-7---7------7---7----9-----9-9-----9-----9-9----------------------|
C#|-7------7-7-------------------9-----9-9-----9-----9-9----------------------|

D#|---------------------------------------------------------------------------|
A#|---------------------------------------------------------------------------|
F#|---------------9------9---9------------------------------------------------|
C#|-7------7-7----9------9---9---9-----9-9-----11-----11---11-----------------|
G#|-7------7-7----7------7---7---9-----9-9-----11-----11---11-----------------|
C#|-7------7-7-------------------9-----9-9-----11-----11---11-----------------|

D#|---------------------------------------------------------------------------|
A#|---------------------------------------------------------------------------|
F#|--------------9------9---9-------------------------------------------------|
C#|-7------7-7---9------9---9----9-9-9-9----11-------6--7---------------------|
G#|-7------7-7---7------7---7----9-9-9-9----11-------6--7---------------------|
C#|-7------7-7-------------------9-9-9-9----11-------6--7---------------------|            
Submit corrections


        Poison lessons Hard to play? Try these video lessons and learn fast Poison lessons
        
↑ Back to top | Tablatures and chords for acoustic guitar and electric guitar, ukulele, drums are parodies/interpretations of the original songs. You may use it for private study, scholarship, research or language learning purposes only