Home » W » With Confidence »

With Confidence - Paper Bass

Artists:  A B C D E F G H I J K L M N O P Q R S T U V W X Y Z # 

Paper Bass

(ver. 1) Click to play this song!
With Confidence
0:10 Stay with me...
 
Gb|----------------|----------------|-4-4-46-8-888864|-4-4-46-8-888864|
Db|-4-4-46-8-888864|-4-4-46-8-888864|----------------|----------------|
Ab|----------------|----------------|----------------|----------------|  x2
Eb|----------------|----------------|----------------|----------------|
 
0:31 And I...
Gb|-6-6-6666-666666|-4-4-4444-444444|-6-6-6666-666666|-4--------------|
Db|----------------|----------------|----------------|----------------|
Ab|----------------|----------------|----------------|----------------|
Eb|----------------|----------------|----------------|----------------|
 
 
0:41 Cause I've been...
Gb|--------4-4-4-4-|
Db|-4-4------------|
Ab|----------------|  x3
Eb|----------------|
 
Gb|-6-6-6-6-4-4-4-4|--------4-4-4-4-|--------4-4-4-4-|--------4-4-4-4-|6-6-6-6-4-4-4-4-|
Db|----------------|-4-4------------|-4-4------------|-----4----------|----------------|
Ab|----------------|----------------|----------------|----------------|----------------|
Eb|----------------|----------------|----------------|----------------|----------------|
 
1:02 Bridge?
Gb|----------------|----------------|-4-4-4444-444444|-4-4-4444-666666|
Db|-4-4-4444-444444|-4-4-4444-444444|----------------|----------------|
Ab|----------------|----------------|----------------|----------------|
Eb|----------------|----------------|----------------|----------------|
 
Gb|----------------|----------------|-4-4-4444-444444|-4-4-4444-444444|
Db|-4-4-4444-444444|-4-4-4444-444444|----------------|----------------|
Ab|----------------|----------------|----------------|----------------|
Eb|----------------|----------------|----------------|----------------|
 
Gb|----------------|----------------|-4-4-4444-444444|-6-6-6666-6666--|
Db|-4-4-4444-444444|-4-4-4444-444444|----------------|----------------|
Ab|----------------|----------------|----------------|----------------|
Eb|----------------|----------------|----------------|----------------|
 
1:32 Cause I've been...
Gb|--------4-4-4-4-|
Db|-4-4------------|
Ab|----------------|  x3
Eb|----------------|
 
Gb|-6-6-6-6-4-4-4-4|--------4-4-4-4-|--------4-4-4-4-|--------4-4-4-4-|6-6-6-6-4-4-4-4-|
Db|----------------|-4-4------------|-4-4------------|-----4----------|----------------|
Ab|----------------|----------------|----------------|----------------|----------------|
Eb|----------------|----------------|----------------|----------------|----------------|
 
Gb|--------4-4-4444|--------4-4-4444|6-6-66664-4-4444|
Db 4-4-4444--------|4-4-4444--------|----------------|
Ab|----------------|----------------|----------------|
Eb|----------------|----------------|----------------|
 
2:04 (No Bass)
 
2:17 Cause I've been...
Gb|--------4-4-4-4-|
Db|-4-4------------|
Ab|----------------|  x3
Eb|----------------|
 
Gb|-6-6-6-6-4-4-4-4|--------4-4-4-4-|--------4-4-4-4-|--------4-4-4-4-|6-6-6-6-4-4-4-4-|
Db|----------------|-4-4------------|-4-4------------|-----4----------|----------------|
Ab|----------------|----------------|----------------|----------------|----------------|
Eb|----------------|----------------|----------------|----------------|----------------|
 
Gb|--------4-4-4444|--------4-4-4444|----------------|--------4-4-4444|6-5-4-3-2-1-0---|
Db 4-4-4444--------|4-4-4444--------|----------------|4-4-4444--------|---------------4|
Ab|----------------|----------------|----------------|----------------|----------------|
Eb|----------------|----------------|----------------|----------------|----------------|
            
Submit corrections

↑ Back to top | Tablatures and chords for acoustic guitar and electric guitar, ukulele, drums are parodies/interpretations of the original songs. You may use it for private study, scholarship, research or language learning purposes only