Home » W » Witchcraft »

Witchcraft - Schyssta Logner Tabs

Artists:  A B C D E F G H I J K L M N O P Q R S T U V W X Y Z # 

Schyssta Logner Tabs

(ver. 1) Click to play this song!
Witchcraft
Hello maties, here's the tabs for the wonderful Witchcraft song "Schyssta 
Lögner" (which probably would mean "Sweet Lies").
I personally love it, it's a very easy song.
Have fun and enjoy!

A tab by Mads Yde aka. Ridder Lugtepik

Schyssta Lögner
Witchcraft
Witchcraft (2004)
Words and music by Magnus Pelander

Riff 1
E----------------------------------|----------------------------------|
B----------------------------------|----------------------------------|
G----------------------------------|----------------------------10----|
D-10h12-12-12-------10-------------|-10h12-12-12-------10-------------|
A-------------10h12----12-10-------|-------------10h12----12-10-------|
E----------------------------10----|----------------------------------|

E----------------------------------|-----------------------------------|
B----------------------------------|-----------------------------------|
G----------------------------------|-----------------------------------|
D-10h12-12-12-------10-------------|-10h12-12-12-----------------------|
A-------------10h12----12-10-------|-------------10h12p10-8h10p8-------|
E----------------------------10----|-----------------------------10----|


Verse Riff                                Lyrics
E----------------------------------|       Du springer runt i cirklar
B----------------------------------|       Du kommer ingenstans
G----------------------------------|       Åh du snackar och du ljuger
D----------------------------------|       Du har inget sans
A-10/12-12-12----------------------|
E-8//10-10-10----------------------|


Riff 3        Riff 3.5 (1)
E-----------------------------------|------------------------------------|
B-----------------------------------|------------------------------------|
G-----------------------------------|------------------------------------|
D-----------------------------------|------------------------------------|
A-15----14---------------8----------|-15----14----12-10----10------------|
E-13----12----8h10-10-10---10--8h10-|-13----12----------13----13-10-8h10-|

Repeat Riff 1, Verse Riff and Riff 3


Play a solo in Dm Pentaton


Riff 4                           
E---------------------------------------| 
B---------------------------------------|
G---------------------------------------|
D---------------------------------------|
A-12-12-12-12-15--17-15-19-17-15-17-15--|
E-10-10-10-10-13--15-13-17-15-13-15-13--|
 play this riff 2 times

Then (Outro riff)
E-------------------------|--------------------------------------|
B-------------------------|--------------------------------------|
G-------------------------|--------------------------------------|
D-------------------------|--------------------------------------|
A--------------8----------|-15----14--12--12--12--12--12--12-----|
E---8h10-10-10---10--8h10-|-13----12--10--10--10--10--10--10-----|

Song Structure
Riff 1 x1
Verse Riff x4
Riff 3 x1
Riff 1 x1
Verse Riff x4
Riff 3 x1
Riff 4 X2
Outro riff x1

Lyrics:
Du springer runt i cirklar
Du kommer ingenstans
Åh du snackar och du ljuger
Du har inget sans

Du har alltid haft turen
Att få som du vill
Men nu är lyckan din över
Du får ingen till

Den killen gav mig schyssta lögner
Lyssna på när han sjunger

Ett steg fram två steg bak nej nä-ä-ä ne-hej
Kan ingen tala om vad som händer med mig



Enjoy
            
Submit corrections

↑ Back to top | Tablatures and chords for acoustic guitar and electric guitar, ukulele, drums are parodies/interpretations of the original songs. You may use it for private study, scholarship, research or language learning purposes only