Home » W » Witchcraft »

Witchcraft - Flag Of Fate Chords

Artists:  A B C D E F G H I J K L M N O P Q R S T U V W X Y Z # 

Flag Of Fate Chords

(ver. 1) Click to play this song!
Witchcraft
[Drums & Bass intro]
 
[Verse 1]
 
Eb|-------------------|
Bb|--3-3--3-----------|
Gb|--4-4--4-----------|
Db|--4-4--4--4-4------| x 20
Ab|--2-2--2--4-4------|
Eb|----------2-2------|
 
Eb|-------------------|
Bb|-------------------|
Gb|--7-7--7-----------|
Db|--7-7--7----7-7----| x 3
Ab|--5-5--5----7-7----|
Eb|------------5-5----|     
 
 
[Chorus]
 
Eb|--2----2----0----2----|
Bb|--3----2----0----3----|
Gb|--4----2----2----4----|
Db|--4----4----2----4----|
Ab|--2----4----2----2----|
Eb|-------2----0---------|
 
 
[Solo]
 
Eb|----------------------------9-10-------------9h10-9----------------------------------------|
Db|----------------------------9-9/11--------------9/11---------------------------------------|
Gb|--11p9p7-------------------------10-10/12-------------10/12-------6b7br6--6h7p6---4~-/16\--|
Db|---------11p9p7-------------------9-9/11--------------9/11---------------------------------|
Ab|-------------------------------------------------------------------------------------------|
Ab|-------------------------------------------------------------------------------------------|
 
 
[Verse 2]
 
Eb|-------------------|
Bb|--3-3--3-----------|
Gb|--4-4--4-----------|
Db|--4-4--4--4-4------| x 8
Ab|--2-2--2--4-4------|
Eb|----------2-2------|
 
Eb|-------------------|
Bb|-------------------|
Gb|--7-7--7-----------|
Db|--7-7--7----7-7----| x 3
Ab|--5-5--5----7-7----|
Eb|------------5-5----|
 
Eb|-------------------|
Bb|--3-3--3-----------|
Gb|--4-4--4-----------|
Db|--4-4--4--4-4------| x 5
Ab|--2-2--2--4-4------|
Eb|----------2-2------|
 
 
[Chorus]
 
Eb|--2----2----0----2----|
Bb|--3----2----0----3----|
Gb|--4----2----2----4----|
Db|--4----4----2----4----| x2
Ab|--2----4----2----2----|
Eb|-------2----0---------|
                    <
Eb|--2----2----0----2-2-2-2-2-2-2-2-|
Bb|--3----2----0----3-3-3-3-3-3-3-3-|
Gb|--4----2----2----4-4-4-4-4-4-4-4-|
Db|--4----4----2----4-4-4-4-4-4-4-4-|
Ab|--2----4----2----2-2-2-2-2-2-2-2-|
Eb|-------2----0--------------------|
 
Eb|----------------------------------------------|
Bb|----------------------------------------------|
Gb|-7-9--6-7---6------------7-9--6-7---6---------|
Db|-7-9--6-7---6-7--7/9-----7-9--6-7---6-7--7/9--|
Ab|-5-7--4-5---4-7--7/9-----5-7--4-5---4-7--7/9--|
Eb|--------------5--5/7------------------5--5/7--|
            
Submit corrections

↑ Back to top | Tablatures and chords for acoustic guitar and electric guitar, ukulele, drums are parodies/interpretations of the original songs. You may use it for private study, scholarship, research or language learning purposes only