Home » W » Witch »

Witch - Isadora Bass

Artists:  A B C D E F G H I J K L M N O P Q R S T U V W X Y Z # 

Isadora Bass
Version #1
Witch


Copy URL

Tuning: Standard (EADG)


This quite easy song comes in three parts and is to be played fingerstyle. I'm not sure 
about the accuracy of the second part, anyway, enjoy!

1st part

G------------------------|
D------------------------|
A--7\2-2----3----2----3--|
E------------------------|

G------------------------|
D------------------------|
A----2----3----2----3----|
E------------------------| x4

G------------------------|
D------------------------|
A----2--2----------------|
E------------------------| x5

G------------------------|
D------------------------|
A----2----3----2----3----|
E------------------------| x8

G------------------------|
D------------------------|
A----2----3----2---------|
E------------------------|

2nd part

G------------------------|
D-----------222----------|
A---222-555-----00011----|
E------------------------| x2

G------------------------|
D------------------------|
A---222-555-444-00011----|
E------------------------|

G------------------------|
D-----------222----------|
A---222-555-----00011----|
E------------------------| x3

G------------------------|
D------------------------|
A---222-555-444-00011----|
E------------------------|

G------------------------|
D-----------222----------|
A---222-555-----00011----|
E------------------------| x3

G------------------------|
D------------------------|
A----222-555-4-----------|
E------------------------|

3rd part

G------------------------|
D------------------------|
A----2----5--4-----------|
E------------------------| x13

G------------------------|
D------------------------|
A----2----5--4--2--------|
E------------------------|

| \ : slide down
=============================================================================
            
Submit corrections

↑ Back to top | Tablatures and chords for acoustic guitar and electric guitar, ukulele, drums are parodies/interpretations of the original songs. You may use it for private study, scholarship, research or language learning purposes only