Home » W » Wipers »

Wipers - Window Shop For Love Tabs

Artists:  A B C D E F G H I J K L M N O P Q R S T U V W X Y Z # 

Window Shop For Love Tabs

(ver. 1) Click to play this song!
Wipers
 Rating:
4.4/5 (5 votes)
                Intro:


e|--------------------------------------------------------------------------------------------------|
b|--------------------------------------------------------------------------------------------------|
g|--------------------------------------------------------------------------------------------------|
d|2-2-2-2-2-2-2-2-2-2-2-2-2-2-2-2-2-2-2-2-2-2-2-2-2-2-2-2-2-2-2-2-2-2-2-2-2-2-2-2-2-2-2-2-2-2-2-2---|
a|2-2-2-2-2-2-2-2-2-2-2-2-2-2-2-2-2-2-2-2-2-2-2-2-2-2-2-2-2-2-2-2-2-2-2-2-2-2-2-2-2-2-2-2-2-2-2-2---|
e|0-0-0-0-0-0-0-0-0-0-0-0-0-0-0-0-0-0-0-0-0-0-0-0-0-0-0-0-0-0-0-0-0-0-0-0-0-0-0-0-0-0-0-0-0-0-0-0---|

e|------------------------------------------------------|
b|------------------------------------------------------|
g|-8--8--8--8--8--8--8--8--8--8--8--8--8--8--8--8--8--8-|
d|-9--9--9--9--9--9--9--9--9--9--9--9--9--9--9--9--9--9-|
a|10-10-10-10-10-10-10-10-10-10-10-10-10-10-10-10-10-10-|
e|------------------------------------------------------|

e|------------8-8-8---12-12-12---12-12-12---------------|
b|------------9-9-9---13-13-13---13-13-13---------------|
g|10-10-10----8-8-8---12-12-12---12-12-12---------------|
d|-9--9-9-----------------------------------------------|
a|10-10-10----------------------------------------------|
e|------------------------------------------------------|


e|------------------------------------------------------|
b|------------------------------------------------------|
g|-8--8--8--8--8--8--8--8--8--8--8--8--8--8--8--8--8--8-|
d|-9--9--9--9--9--9--9--9--9--9--9--9--9--9--9--9--9--9-|
a|10-10-10-10-10-10-10-10-10-10-10-10-10-10-10-10-10-10-|
e|------------------------------------------------------|



e|------------8-8-8---12-12-12---12-12-12---------------|
b|------------9-9-9---13-13-13---13-13-13---------------|
g|10-10-10----8-8-8---12-12-12---12-12-12---------------|
d|-9--9-9-----------------------------------------------|
a|10-10-10----------------------------------------------|
e|------------------------------------------------------|


e|------------------------------------------------------|
b|------------------------------------------------------|
g|-8--8--8--8--8--8--8--8--8--8--8--8--8--8--8--8--8--8-|
d|-9--9--9--9--9--9--9--9--9--9--9--9--9--9--9--9--9--9-|
a|10-10-10-10-10-10-10-10-10-10-10-10-10-10-10-10-10-10-|
e|------------------------------------------------------|

e|------------8-8-8---12-12-12---12-12-12---------------|
b|------------9-9-9---13-13-13---13-13-13---------------|
g|10-10-10----8-8-8---12-12-12---12-12-12---------------|
d|-9--9-9-----------------------------------------------|
a|10-10-10----------------------------------------------|
e|------------------------------------------------------|


e|------------------------------------------------------|
b|------------------------------------------------------|
g|-8--8--8--8--8--8--8--8--8--8--8--8--8--8--8--8--8--8-|
d|-9--9--9--9--9--9--9--9--9--9--9--9--9--9--9--9--9--9-|
a|10-10-10-10-10-10-10-10-10-10-10-10-10-10-10-10-10-10-|
e|------------------------------------------------------|
e|------------8-8-8---12-12-12---12-12-12---------------|
b|------------9-9-9---13-13-13---13-13-13---------------|
g|10-10-10----8-8-8---12-12-12---12-12-12---------------|
d|-9--9-9-----------------------------------------------|
a|10-10-10----------------------------------------------|
e|------------------------------------------------------|

e|------------------------------------------------------|
b|------------------------------------------------------|
g|------------------------------------------------------|
d|2-2-2-2-2-2-2-2-2-2-2-2-2-2-2-2-2-2-2-2-2-2-2-2-2-2---|
a|2-2-2-2-2-2-2-2-2-2-2-2-2-2-2-2-2-2-2-2-2-2-2-2-2-2---|
e|0-0-0-0-0-0-0-0-0-0-0-0-0-0-0-0-0-0-0-0-0-0-0-0-0-0---|

Verses:

e|----------------------------------------------------|
b|----------------------------------------------------|
g|----------------------------------------------------|
d|7-7-7-7-7-7-7-7-7---10-10-10-10-10-10-10-10---------|
a|7-7-7-7-7-7-7-7-7---10-10-10-10-10-10-10-10---------|
e|5-5-5-5-5-5-5-5-5----8-8-8-8-8-8-8-8-8-8-8----------|

I can't believe my eyes ,I can't see so clearly 

e|------------------------------------------------------|
b|------------------------------------------------------|
g|------------------------------------------------------|
d|2-2-2-2-2-2-2-2-2-2-2-2-2-2-2-2-2-2-2-2-2-2-2-2-2-2---|
a|2-2-2-2-2-2-2-2-2-2-2-2-2-2-2-2-2-2-2-2-2-2-2-2-2-2---|
e|0-0-0-0-0-0-0-0-0-0-0-0-0-0-0-0-0-0-0-0-0-0-0-0-0-0---|

A thick dark cload is hanging all about me 

e|----------------------------------------------------|
b|----------------------------------------------------|
g|----------------------------------------------------|
d|7-7-7-7-7-7-7-7-7---10-10-10-10-10-10-10-10---------|
a|7-7-7-7-7-7-7-7-7---10-10-10-10-10-10-10-10---------|
e|5-5-5-5-5-5-5-5-5----8-8-8-8-8-8-8-8-8-8-8----------|


Suffocating me , Suffocating me

e|------------------------------------------------------|
b|------------------------------------------------------|
g|------------------------------------------------------|
d|2-2-2-2-2-2-2-2-2-2-2-2-2-2-2-2-2-2-2-2-2-2-2-2-2-2---|
a|2-2-2-2-2-2-2-2-2-2-2-2-2-2-2-2-2-2-2-2-2-2-2-2-2-2---|
e|0-0-0-0-0-0-0-0-0-0-0-0-0-0-0-0-0-0-0-0-0-0-0-0-0-0---|

Invasion from the outside , Works it's way inward
e|----------------------------------------------------|
b|----------------------------------------------------|
g|----------------------------------------------------|
d|7-7-7-7-7-7-7-7-7---10-10-10-10-10-10-10-10---------|
a|7-7-7-7-7-7-7-7-7---10-10-10-10-10-10-10-10---------|
e|5-5-5-5-5-5-5-5-5----8-8-8-8-8-8-8-8-8-8-8----------|

Feeling like a bead , Of cold ice forming  

e|------------------------------------------------------|
b|------------------------------------------------------|
g|------------------------------------------------------|
d|2-2-2-2-2-2-2-2-2-2-2-2-2-2-2-2-2-2-2-2-2-2-2-2-2-2---|
a|2-2-2-2-2-2-2-2-2-2-2-2-2-2-2-2-2-2-2-2-2-2-2-2-2-2---|
e|0-0-0-0-0-0-0-0-0-0-0-0-0-0-0-0-0-0-0-0-0-0-0-0-0-0---|

into a chamber of lost illusion

e|----------------------------------------------------|
b|----------------------------------------------------|
g|----------------------------------------------------|
d|7-7-7-7-7-7-7-7-7---10-10-10-10-10-10-10-10---------|
a|7-7-7-7-7-7-7-7-7---10-10-10-10-10-10-10-10---------|
e|5-5-5-5-5-5-5-5-5----8-8-8-8-8-8-8-8-8-8-8----------|

Window shop for love , Window shop for love

e|------------------------------------------------------|
b|------------------------------------------------------|
g|------------------------------------------------------|
d|2-2-2-2-2-2-2-2-2-2-2-2-2-2-2-2-2-2-2-2-2-2-2-2-2-2---|
a|2-2-2-2-2-2-2-2-2-2-2-2-2-2-2-2-2-2-2-2-2-2-2-2-2-2---|
e|0-0-0-0-0-0-0-0-0-0-0-0-0-0-0-0-0-0-0-0-0-0-0-0-0-0---|

Want it so much , look but don't touch

Solo:

e|----------------------------------------------------------------------------|
b|----------------------------------------------------------------------------|
g|-------------12~-------------15~--14~14-14-14--14~14-14-14--14~14-14-14-14--|
d|14-14-14-14------17-17-17-17------------------------------------------------|
a|12-12-12-12------15-15-15-15------------------------------------------------|
e|----------------------------------------------------------------------------|

e|-------------------------------------------------------------------------------|
b|---------------------------------------------------------------------------15~-|
g|-------------12~-------------15~--14~14-14-14--14~14-14-14--14~14-14-14-14-----| repeat x2
d|14-14-14-14------17-17-17-17---------------------------------------------------|
a|12-12-12-12------15-15-15-15---------------------------------------------------|
e|-------------------------------------------------------------------------------|

e|----------------------------------------------------|
b|----------------------------------------------------|
g|-------------12~-------------15~--------------------|
d|14-14-14-14------17-17-17-17--------2---------------| let sing the last riff
a|12-12-12-12------15-15-15-15--------2---------------|
e|------------------------------------0---------------|


(while the bass playing...)

I can't believe my eyes 
I can't see so clearly 
A thick dark cload is hanging all about me 
Suffocating me
Suffocating me
Invasion from the outside
Works it's way inward
Feeling like a bead
Of cold ice forming into a chamber 
Of lost illusion
Window shop for love
Window shop for love
Want it so much
Look but don't touch



Verses:

e|----------------------------------------------------|
b|----------------------------------------------------|
g|----------------------------------------------------|
d|7-7-7-7-7-7-7-7-7---10-10-10-10-10-10-10-10---------|
a|7-7-7-7-7-7-7-7-7---10-10-10-10-10-10-10-10---------|
e|5-5-5-5-5-5-5-5-5----8-8-8-8-8-8-8-8-8-8-8----------|

Window shop for love , Window shop for love

e|------------------------------------------------------|
b|------------------------------------------------------|
g|------------------------------------------------------|
d|2-2-2-2-2-2-2-2-2-2-2-2-2-2-2-2-2-2-2-2-2-2-2-2-2-2---|
a|2-2-2-2-2-2-2-2-2-2-2-2-2-2-2-2-2-2-2-2-2-2-2-2-2-2---|
e|0-0-0-0-0-0-0-0-0-0-0-0-0-0-0-0-0-0-0-0-0-0-0-0-0-0---|

Want it so much , look but don't touch


e|----------------------------------------------------|
b|----------------------------------------------------|
g|----------------------------------------------------|
d|7-7-7-7-7-7-7-7-7---10-10-10-10-10-10-10-10---------|
a|7-7-7-7-7-7-7-7-7---10-10-10-10-10-10-10-10---------|
e|5-5-5-5-5-5-5-5-5----8-8-8-8-8-8-8-8-8-8-8----------|

Window shop for love , Window shop for love

e|------------------------------------------------------|
b|------------------------------------------------------|
g|------------------------------------------------------|
d|2-2-2-2-2-2-2-2-2-2-2-2-2-2-2-2-2-2-2-2-2-2-2-2-2-2---|
a|2-2-2-2-2-2-2-2-2-2-2-2-2-2-2-2-2-2-2-2-2-2-2-2-2-2---|
e|0-0-0-0-0-0-0-0-0-0-0-0-0-0-0-0-0-0-0-0-0-0-0-0-0-0---|

Want it so much , look but don't touch


e|----------------------------------------------------|
b|----------------------------------------------------|
g|----------------------------------------------------|
d|7-7-7-7-7-7-7-7-7---10-10-10-10-10-10-10-10---------|
a|7-7-7-7-7-7-7-7-7---10-10-10-10-10-10-10-10---------|
e|5-5-5-5-5-5-5-5-5----8-8-8-8-8-8-8-8-8-8-8----------|

Window shop for love , Window shop for love

e|------------------------------------------------------|
b|------------------------------------------------------|
g|------------------------------------------------------|
d|2-2-2-2-2-2-2-2-2-2-2-2-2-2-2-2-2-2-2-2-2-2-2-2-2-2---|
a|2-2-2-2-2-2-2-2-2-2-2-2-2-2-2-2-2-2-2-2-2-2-2-2-2-2---|
e|0-0-0-0-0-0-0-0-0-0-0-0-0-0-0-0-0-0-0-0-0-0-0-0-0-0---|

Want it so much , look but don't touch



e|----------------------------------------------------|
b|----------------------------------------------------|
g|----------------------------------------------------|
d|7-7-7-7-7-7-7-7-7---10-10-10-10-10-10-10-10---------|
a|7-7-7-7-7-7-7-7-7---10-10-10-10-10-10-10-10---------|
e|5-5-5-5-5-5-5-5-5----8-8-8-8-8-8-8-8-8-8-8----------|

look but don't touch , look but don't touch

e|------------------------------------------------------|
b|------------------------------------------------------|
g|------------------------------------------------------|
d|2-2-2-2-2-2-2-2-2-2-2-2-2-2-2-2-2-2-2-2-2-2-2-2-2-2---|
a|2-2-2-2-2-2-2-2-2-2-2-2-2-2-2-2-2-2-2-2-2-2-2-2-2-2---|
e|0-0-0-0-0-0-0-0-0-0-0-0-0-0-0-0-0-0-0-0-0-0-0-0-0-0---|


LOOK BUT DONNNNNNN'T

End:

e|------------8-8-8---12-12-12---12-12-12---------------|
b|------------9-9-9---13-13-13---13-13-13---------------|
g|10-10-10----8-8-8---12-12-12---12-12-12---------------|
d|-9--9-9-----------------------------------------------|
a|10-10-10----------------------------------------------|
e|------------------------------------------------------|


e|------------------------------------------------------|
b|------------------------------------------------------|
g|-8--8--8--8--8--8--8--8--8--8--8--8--8--8--8--8--8--8-|
d|-9--9--9--9--9--9--9--9--9--9--9--9--9--9--9--9--9--9-|
a|10-10-10-10-10-10-10-10-10-10-10-10-10-10-10-10-10-10-|
e|------------------------------------------------------|


e|------------8-8-8---12-12-12---12-12-12---------------|
b|------------9-9-9---13-13-13---13-13-13---------------|
g|10-10-10----8-8-8---12-12-12---12-12-12---------------|
d|-9--9-9-----------------------------------------------|
a|10-10-10----------------------------------------------|
e|------------------------------------------------------|


e|------------------------------------------------------|
b|------------------------------------------------------|
g|-8--8--8--8--8--8--8--8--8--8--8--8--8--8--8--8--8--8-|
d|-9--9--9--9--9--9--9--9--9--9--9--9--9--9--9--9--9--9-|
a|10-10-10-10-10-10-10-10-10-10-10-10-10-10-10-10-10-10-|
e|------------------------------------------------------|

e|------------8-8-8---12-12-12---12-12-12---------------|
b|------------9-9-9---13-13-13---13-13-13---------------|
g|10-10-10----8-8-8---12-12-12---12-12-12---------------|
d|-9--9-9-----------------------------------------------|
a|10-10-10----------------------------------------------|
e|------------------------------------------------------|


e|------------------------------------------------------|
b|------------------------------------------------------|
g|-8--8--8--8--8--8--8--8--8--8--8--8--8--8--8--8--8--8-|
d|-9--9--9--9--9--9--9--9--9--9--9--9--9--9--9--9--9--9-|
a|10-10-10-10-10-10-10-10-10-10-10-10-10-10-10-10-10-10-|
e|------------------------------------------------------|


e|------------8-8-8---12-12-12---12-12-12---------------|
b|------------9-9-9---13-13-13---13-13-13---------------|
g|10-10-10----8-8-8---12-12-12---12-12-12---------------|
d|-9--9-9-----------------------------------------------|
a|10-10-10----------------------------------------------|
e|------------------------------------------------------|


e|------------------------------------------------------|
b|------------------------------------------------------|
g|-8--8--8--8--8--8--8--8--8--8--8--8--8--8--8--8--8--8-|
d|-9--9--9--9--9--9--9--9--9--9--9--9--9--9--9--9--9--9-|
a|10-10-10-10-10-10-10-10-10-10-10-10-10-10-10-10-10-10-|
e|------------------------------------------------------|


e|------------------------------------------------------|
b|------------------------------------------------------|
g|------------------------------------------------------|
d|2-2-2-2-2-2-2-2-2-2-2-2-2-2-2-2-2-2-2-2-2-2-2-2-2-2---|
a|2-2-2-2-2-2-2-2-2-2-2-2-2-2-2-2-2-2-2-2-2-2-2-2-2-2---|
e|0-0-0-0-0-0-0-0-0-0-0-0-0-0-0-0-0-0-0-0-0-0-0-0-0-0---|

thank you for your rate and your comment!            
Submit corrections

↑ Back to top | Tablatures and chords for acoustic guitar and electric guitar, ukulele, drums are parodies/interpretations of the original songs. You may use it for private study, scholarship, research or language learning purposes only