Home » W » Wipers »

Wipers - Doom Town Ver 3 Tabs

Artists:  A B C D E F G H I J K L M N O P Q R S T U V W X Y Z # 

Doom Town Ver 3 Tabs

(ver. 1) Click to play this song!
Wipers
 Rating:
3.4/5 (29 votes)
                Intro:

e|----------------------------------------------------------------------------------------|
b|----------------------------------------------------------------------------------------|
g|----------------------------------------------------------------------------------------|
d|----------------------------------------------------------------------------------------|
a|9-10-9-7-7-9-9-9-9-10-9-9-10-10-9-9-9-9-9-9-10-9-9-9-10-9-9-9-9-9-9-10-7-9-9-9-9-9-10-9-|
e|----------------------------------------------------------------------------------------|

e|-----------------------------------------------------------------------|
b|-----------------------------------------------------------------------|
g|-----------------------------------------------------------------------|
d|-----------------------------------------------------------------------|
a|9-9-9-9-9-10-10-10-10-9-9-9-9-9-7-9-9-9-9-9-9-9-9-10-9-9-9-9-9-9-9-9-9-|
e|-----------------------------------------------------------------------|
play like you feel it

e|-----------------------------------------------------------------|
b|7-7-7-7-7-7-7-7-7-8-8-8-8-8-8-8-8-7-7-7-7-7-7-7-7-7-7-7-7-7-7-7--|
g|-----------------------------------------------------------------|
d|-----------------------------------------------------------------|
a|-----------------------------------------------------------------|
e|-----------------------------------------------------------------|

e|-----------------------------------------------------------------|
b|5-5-5-5-5-5-5-5-5-8-8-8-8-8-8-8-8-8-7-7-7-7-7-7-7-7-7-7-7-7-7-7-7|
g|-----------------------------------------------------------------| do it X3
d|-----------------------------------------------------------------|
a|-----------------------------------------------------------------|
e|-----------------------------------------------------------------|


e|-----5--5-----2-2-0-2-0-0-0-0--|
b|3--3-------3--3-3-3-3-3-3-3-3--|
g|4-4-------4---4-4-4-4-4-4-4-4--|
d|5-------------4-4-4-4-4-4-4-4--|
a|-------------------------------|
e|-------------------------------|

just before the verses...

e|---------------------------------------------------|
b|3--3-3-3--2--2-2-2--3--3-3-3--2--2-2-2-------------|
g|4--4-4-4--3--3-3-3--4--4-4-4--3--3-3-3-------------| repeat X2
d|5--5-5-5--4--4-4-4--5--5-5-5--4--4-4-4-------------|
a|5--5-5-5--4--4-4-4--5--5-5-5--4--4-4-4-------------|
e|---------------------------------------------------|

Verses:

e|--------------------------------------------------------------|
b|--------------------------------------------------------------|
g|4-4-4-4-4-4--------------2-2-2-2-2-2--------------------------|
d|4-4-4-4-4-4--5-5-5-5-5-5-2-2-2-2-2-2-4-4-4-4-4-4--------------|
a|2-2-2-2-2-2--5-5-5-5-5-5-0-0-0-0-0-0-4-4-4-4-4-4--------------|
e|-------------3-3-3-3-3-3-------------2-2-2-2-2-2--------------|

Chorus:

e|-------------------------------------|
b|3-3-3-3-3-3-3-3-3--2-2-2-2-2-2-2-2-2-|
g|4-4-4-4-4-4-4-4-4--3-3-3-3-3-3-3-3-3-|
d|5-5-5-5-5-5-5-5-5--4-4-4-4-4-4-4-4-4-|repeat X4
a|5-5-5-5-5-5-5-5-5--4-4-4-4-4-4-4-4-4-|
e|-------------------------------------|

Outro :

e|-----------------------------------------------------------------|
b|7-7-7-7-7-7-7-7-7-8-8-8-8-8-8-8-8-7-7-7-7-7-7-7-7-7-7-7-7-7-7-7--|
g|-----------------------------------------------------------------|
d|-----------------------------------------------------------------|
a|-----------------------------------------------------------------|
e|-----------------------------------------------------------------|

e|-----------------------------------------------------------------|
b|5-5-5-5-5-5-5-5-5-8-8-8-8-8-8-8-8-8-7-7-7-7-7-7-7-7-7-7-7-7-7-7-7|
g|-----------------------------------------------------------------| do it X3
d|-----------------------------------------------------------------|
a|-----------------------------------------------------------------|
e|-----------------------------------------------------------------|

e|-----5--5-----2-2-0-2-0-0-0-0--|
b|3--3-------3--3-3-3-3-3-3-3-3--|
g|4-4-------4---4-4-4-4-4-4-4-4--|
d|5-------------4-4-4-4-4-4-4-4--|
a|-------------------------------|
e|-------------------------------|


e|---------------------------------------------------|
b|3--3-3-3--2--2-2-2--3--3-3-3--2--2-2-2-------------|
g|4--4-4-4--3--3-3-3--4--4-4-4--3--3-3-3-------------| repeat X2
d|5--5-5-5--4--4-4-4--5--5-5-5--4--4-4-4-------------|
a|5--5-5-5--4--4-4-4--5--5-5-5--4--4-4-4-------------|
e|---------------------------------------------------|



Verses:

e|--------------------------------------------------------------|
b|--------------------------------------------------------------|
g|4-4-4-4-4-4--------------2-2-2-2-2-2--------------------------|
d|4-4-4-4-4-4--5-5-5-5-5-5-2-2-2-2-2-2-4-4-4-4-4-4--------------|
a|2-2-2-2-2-2--5-5-5-5-5-5-0-0-0-0-0-0-4-4-4-4-4-4--------------|
e|-------------3-3-3-3-3-3-------------2-2-2-2-2-2--------------|

Chorus:

e|-------------------------------------|
b|3-3-3-3-3-3-3-3-3--2-2-2-2-2-2-2-2-2-|
g|4-4-4-4-4-4-4-4-4--3-3-3-3-3-3-3-3-3-|repeat X4
d|5-5-5-5-5-5-5-5-5--4-4-4-4-4-4-4-4-4-|
a|5-5-5-5-5-5-5-5-5--4-4-4-4-4-4-4-4-4-|
e|-------------------------------------|

Outro :

e|-----------------------------------------------------------------|
b|7-7-7-7-7-7-7-7-7-8-8-8-8-8-8-8-8-7-7-7-7-7-7-7-7-7-7-7-7-7-7-7--|
g|-----------------------------------------------------------------|
d|-----------------------------------------------------------------|
a|-----------------------------------------------------------------|
e|-----------------------------------------------------------------|

e|-----------------------------------------------------------------|
b|5-5-5-5-5-5-5-5-5-8-8-8-8-8-8-8-8-8-7-7-7-7-7-7-7-7-7-7-7-7-7-7-7|
g|-----------------------------------------------------------------| do it X3
d|-----------------------------------------------------------------|
a|-----------------------------------------------------------------|
e|-----------------------------------------------------------------|

e|-----5--5-----2-2-0-2-0-0-0-0--|
b|3--3-------3--3-3-3-3-3-3-3-3--|
g|4-4-------4---4-4-4-4-4-4-4-4--|
d|5-------------4-4-4-4-4-4-4-4--|
a|-------------------------------|
e|-------------------------------|


e|---------------------------------------------------|
b|3--3-3-3--2--2-2-2--3--3-3-3--2--2-2-2-------------|
g|4--4-4-4--3--3-3-3--4--4-4-4--3--3-3-3-------------| repeat X2
d|5--5-5-5--4--4-4-4--5--5-5-5--4--4-4-4-------------|
a|5--5-5-5--4--4-4-4--5--5-5-5--4--4-4-4-------------|
e|---------------------------------------------------|

Verses:

e|--------------------------------------------------------------|
b|--------------------------------------------------------------|
g|4-4-4-4-4-4--------------2-2-2-2-2-2--------------------------|
d|4-4-4-4-4-4--5-5-5-5-5-5-2-2-2-2-2-2-4-4-4-4-4-4--------------|
a|2-2-2-2-2-2--5-5-5-5-5-5-0-0-0-0-0-0-4-4-4-4-4-4--------------|
e|-------------3-3-3-3-3-3-------------2-2-2-2-2-2--------------|

Chorus:

e|-------------------------------------|
b|3-3-3-3-3-3-3-3-3--2-2-2-2-2-2-2-2-2-|
g|4-4-4-4-4-4-4-4-4--3-3-3-3-3-3-3-3-3-|
d|5-5-5-5-5-5-5-5-5--4-4-4-4-4-4-4-4-4-| repeat X4
a|5-5-5-5-5-5-5-5-5--4-4-4-4-4-4-4-4-4-|
e|-------------------------------------|

Outro :

e|-----------------------------------------------------------------|
b|-8-8-8-8-8-8-8-8-7-7-7-7-7-7-7-7-7-7-7-7-7-7-7-7-7-7-7-7-7-7-7-7-|
g|-----------------------------------------------------------------|
d|-----------------------------------------------------------------|
a|-----------------------------------------------------------------|
e|-----------------------------------------------------------------|

e|-----------------------------------------------------------------|
b|5-5-5-5-5-5-5-5-5-8-8-8-8-8-8-8-8-8-7-7-7-7-7-7-7-7-7-7-7-7-7-7-7|
g|-----------------------------------------------------------------| 
d|-----------------------------------------------------------------|
a|-----------------------------------------------------------------|
e|-----------------------------------------------------------------|

e|-----------------------------------------------------------------|
b|5-5-5-5-5-5-5-5-5-8-8-8-8-8-8-8-8-8-7-7-7-7-7-7-7-7-7-7-7-7-7-7-7|
g|-----------------------------------------------------------------| 
d|-----------------------------------------------------------------|
a|-----------------------------------------------------------------|
e|-----------------------------------------------------------------|

e|------------------|
b|5-5-5-5-5-5-5-5-5-|
g|------------------| 
d|------------------|
a|------------------|
e|------------------|

e|-----5--5-----2-2-0-2-0-0-0-0--|
b|3--3-------3--3-3-3-3-3-3-3-3--|
g|4-4-------4---4-4-4-4-4-4-4-4--|
d|5-------------4-4-4-4-4-4-4-4--|
a|-------------------------------|
e|-------------------------------|


e|---------------------------------------------------|
b|3--3-3-3--2--2-2-2--3--3-3-3--2--2-2-2-------------|
g|4--4-4-4--3--3-3-3--4--4-4-4--3--3-3-3-------------| repeat X2
d|5--5-5-5--4--4-4-4--5--5-5-5--4--4-4-4-------------|
a|5--5-5-5--4--4-4-4--5--5-5-5--4--4-4-4-------------|
e|---------------------------------------------------|

doom....town....doom...town....

Verses:

e|--------------------------------------------------------------|
b|--------------------------------------------------------------|
g|4-4-4-4-4-4--------------2-2-2-2-2-2--------------------------|
d|4-4-4-4-4-4--5-5-5-5-5-5-2-2-2-2-2-2-4-4-4-4-4-4--------------|
a|2-2-2-2-2-2--5-5-5-5-5-5-0-0-0-0-0-0-4-4-4-4-4-4--------------|
e|-------------3-3-3-3-3-3-------------2-2-2-2-2-2--------------|

Chorus:

e|-------------------------------------|
b|3-3-3-3-3-3-3-3-3--2-2-2-2-2-2-2-2-2-|
g|4-4-4-4-4-4-4-4-4--3-3-3-3-3-3-3-3-3-|repeat X4
d|5-5-5-5-5-5-5-5-5--4-4-4-4-4-4-4-4-4-|
a|5-5-5-5-5-5-5-5-5--4-4-4-4-4-4-4-4-4-|
e|-------------------------------------|

Outro :

e|-----------------------------------------------------------------|
b|-8-8-8-8-8-8-8-8-7-7-7-7-7-7-7-7-7-7-7-7-7-7-7-7-7-7-7-7-7-7-7-7-|
g|-----------------------------------------------------------------|
d|-----------------------------------------------------------------|
a|-----------------------------------------------------------------|
e|-----------------------------------------------------------------|

e|-----------------------------------------------------------------|
b|5-5-5-5-5-5-5-5-5-8-8-8-8-8-8-8-8-8-7-7-7-7-7-7-7-7-7-7-7-7-7-7-7|
g|-----------------------------------------------------------------| 
d|-----------------------------------------------------------------|
a|-----------------------------------------------------------------|
e|-----------------------------------------------------------------|

e|-----------------------------------------------------------------|
b|5-5-5-5-5-5-5-5-5-8-8-8-8-8-8-8-8-8-7-7-7-7-7-7-7-7-7-7-7-7-7-7-7|
g|-----------------------------------------------------------------| 
d|-----------------------------------------------------------------|
a|-----------------------------------------------------------------|
e|-----------------------------------------------------------------|

e|------------------|
b|5-5-5-5-5-5-5-5-5-|
g|------------------| 
d|------------------|
a|------------------|
e|------------------|

e|-----5--5-----2-2-0-2-0-0-0-0--|
b|3--3-------3--3-3-3-3-3-3-3-3--|
g|4-4-------4---4-4-4-4-4-4-4-4--|
d|5-------------4-4-4-4-4-4-4-4--|
a|-------------------------------|
e|-------------------------------|

Chorus:

e|-------------------------------------|
b|3-3-3-3-3-3-3-3-3--2-2-2-2-2-2-2-2-2-|
g|4-4-4-4-4-4-4-4-4--3-3-3-3-3-3-3-3-3-|repeat X4
d|5-5-5-5-5-5-5-5-5--4-4-4-4-4-4-4-4-4-|
a|5-5-5-5-5-5-5-5-5--4-4-4-4-4-4-4-4-4-|
e|-------------------------------------|


End :

e|-----------------------------------------------------------------|
b|-8-8-8-8-8-8-8-8-7-7-7-7-7-7-7-7-7-7-7-7-7-7-7-7-7-7-7-7-7-7-7-7-|
g|-----------------------------------------------------------------|
d|-----------------------------------------------------------------|
a|-----------------------------------------------------------------|
e|-----------------------------------------------------------------|

e|-----------------------------------------------------------------|
b|5-5-5-5-5-5-5-5-5-8-8-8-8-8-8-8-8-8-7-7-7-7-7-7-7-7-7-7-7-7-7-7-7|
g|-----------------------------------------------------------------| 
d|-----------------------------------------------------------------|
a|-----------------------------------------------------------------|
e|-----------------------------------------------------------------|

e|-----------------------------------------------------------------|
b|5-5-5-5-5-5-5-5-5-8-8-8-8-8-8-8-8-8-7-7-7-7-7-7-7-7-7-7-7-7-7-7-7|
g|-----------------------------------------------------------------| 
d|-----------------------------------------------------------------|
a|-----------------------------------------------------------------|
e|-----------------------------------------------------------------|

e|------------------|
b|5-5-5-5-5-5-5-5-5-|
g|------------------| 
d|------------------|
a|------------------|
e|------------------|

e|-----5--5-----2-2-0-2-0-0-0-0--|
b|3--3-------3--3-3-3-3-3-3-3-3--|
g|4-4-------4---4-4-4-4-4-4-4-4--|
d|5-------------4-4-4-4-4-4-4-4--|
a|-------------------------------|
e|-------------------------------|

Chorus:

e|-------------------------------------|
b|3-3-3-3-3-3-3-3-3--2-2-2-2-2-2-2-2-2-|
g|4-4-4-4-4-4-4-4-4--3-3-3-3-3-3-3-3-3-|repeat X4
d|5-5-5-5-5-5-5-5-5--4-4-4-4-4-4-4-4-4-|
a|5-5-5-5-5-5-5-5-5--4-4-4-4-4-4-4-4-4-|
e|-------------------------------------|
            
Submit corrections

↑ Back to top | Tablatures and chords for acoustic guitar and electric guitar, ukulele, drums are parodies/interpretations of the original songs. You may use it for private study, scholarship, research or language learning purposes only