Home » W » Wipers »

Wipers - Different Ways Tabs

Artists:  A B C D E F G H I J K L M N O P Q R S T U V W X Y Z # 

Different Ways Tabs

(ver. 1) Click to play this song!
Wipers
 Rating:
4.4/5 (17 votes)
                Intro:

e|10x10*10-10-11--10--8----5*5*5-5--6--5--3----|
b|10x10*10-10-11--10--8----5*5*5-5--6--5--3----|
g|10x10*10-10-11--10--8----5*5*5-5--6--5--3----| repeat X4
d|---------------------------------------------|
a|---------------------------------------------|
e|---------------------------------------------|

e|-------------------------------------|
b|4-4-4---4-4-4---4-4-4---4-4-4--------|
g|5-5-5---5-5-5---5-5-5---5-5-6--------|
d|6-6-6---6-6-6---6-6-6---6-6-6--------|
a|6-6-6---6-6-6---6-6-6---6-6-6--------|
e|-------------------------------------|

e|-------------------------------------|
b|4-4-3---3-4-4------------------------|
g|5-5-4---4-5-5------------------------| repeat X2
d|6-6-5---5-6-6------------------------|
a|6-6-5---5-6-6------------------------|
e|-------------------------------------|

Verses:

e|-------------------------------------|
b|4-4-3---3-4-4------------------------|
g|5-5-4---4-5-5------------------------| repeat X4
d|6-6-5---5-6-6------------------------|
a|6-6-5---5-6-6------------------------|
e|-------------------------------------|

Chorus:

e|-------------------------------------|
b|-3-4-4-------------------------------|
g|-4-5-5-------------------------------|  repeat X2
d|-5-6-6-------------------------------|
a|-5-6-6-------------------------------|
e|-------------------------------------|

It's different ways

Outro:

e|-------------------------------------|
b|8-8-8h9p8------3-3-3h4p3-------------|
g|-------------------------------------| 
d|-------------------------------------|
a|-------------------------------------|
e|-------------------------------------|

e|-------------------------------------|
b|-3-4-4-------------------------------|
g|-4-5-5-------------------------------|  
d|-5-6-6-------------------------------|
a|-5-6-6-------------------------------|
e|-------------------------------------|

e|-------------------------------------|
b|8-8-8h9p8------3-3-3h4p3-------------|
g|-------------------------------------| 
d|-------------------------------------|
a|-------------------------------------|
e|-------------------------------------|

e|-------------------------------------|
b|-3-4-4-------------------------------|
g|-4-5-5-------------------------------|  
d|-5-6-6-------------------------------|
a|-5-6-6-------------------------------|
e|-------------------------------------|
Chorus:

e|-------------------------------------|
b|-3-4-4-------------------------------|
g|-4-5-5-------------------------------|  repeat X2
d|-5-6-6-------------------------------|
a|-5-6-6-------------------------------|
e|-------------------------------------|

It's different ways

Verses:

e|-------------------------------------|
b|4-4-3---3-4-4------------------------|
g|5-5-4---4-5-5------------------------| repeat X4
d|6-6-5---5-6-6------------------------|
a|6-6-5---5-6-6------------------------|
e|-------------------------------------|

Chorus:

e|-------------------------------------|
b|-3-4-4-------------------------------|
g|-4-5-5-------------------------------|  repeat X2
d|-5-6-6-------------------------------|
a|-5-6-6-------------------------------|
e|-------------------------------------|

It's different ways

Outro :

e|10x10*10-10-11--10--8----5*5*5-5--6--5--3----|
b|10x10*10-10-11--10--8----5*5*5-5--6--5--3----|
g|10x10*10-10-11--10--8----5*5*5-5--6--5--3----| repeat X4
d|---------------------------------------------|
a|---------------------------------------------|
e|---------------------------------------------|            
Submit corrections

↑ Back to top | Tablatures and chords for acoustic guitar and electric guitar, ukulele, drums are parodies/interpretations of the original songs. You may use it for private study, scholarship, research or language learning purposes only