» » »

Wings - Young Boy Bass

Artists:  A B C D E F G H I J K L M N O P Q R S T U V W X Y Z # 

Young Boy Bass

(ver. 1) Click to play this song!
Wings
 Rating:
4/5 (4 votes)

 Young Boy lessons Tabs too difficult? Try these video lessons and learn fast
 
                
TablEdited by Jan Bjorklund   
You are welcome to request for tabs!
Fingering and positions as suggested by TablEdit, please use common sense.




Tuning : E A D G 	Time Signature: 4/4

 |       |       |       |        |       |       |       |        
|----------------7-------5---4---|5-----------5---5---------------|
|--------------------------------|--------------------------------|
|--------------------------------|--------------------------------|
|--------------------------------|--------------------------------|

 |       |       |       |        |       |       |       |        
|2-----------2---2---------------|--------------------------------|
|--------------------------------|2-----------2---2---------------|
|--------------------------------|--------------------------------|
|--------------------------------|--------------------------------|

 |       |       |       |        |       |       |       |        
|------------0-------0---0---0---|5-----------5---5---------------|
|3-------------------------------|--------------------------------|
|--------------------------------|--------------------------------|
|--------------------------------|--------------------------------|

 |       |       |       |        |       |       |       |        
|2-----------2---2---------------|--------------------------------|
|--------------------------------|2-----------2---2---------------|
|--------------------------------|--------------------------------|
|--------------------------------|--------------------------------|

 |       |       |       |        |       |       |       |        
|------------0-------0---0---0---|--------------------------------|
|3-------------------------------|3-----------3---3-----------3---|
|--------------------------------|--------------------------------|
|--------------------------------|--------------------------------|

 |       |       |       |        |       |       |       |        
|0-----------0---0---0-------0---|2-----------2---2-------2-------|
|--------------------------------|--------------------------------|
|--------------------------------|--------------------------------|
|--------------------------------|--------------------------------|

 |       |       |       |        |       |       |       |        
|--------------------------------|--------------------------------|
|0---0---0---------------0-------|--------------------------------|
|----------------0---------------|3-----------3---3---------------|
|--------------------------------|--------------------------------|

 |       |       |       |        |       |       |       |        
|2-----------2---2---------------|--------------------------------|
|--------------------------------|2-----------2---2---------------|
|--------------------------------|--------------------------------|
|--------------------------------|--------------------------------|

 |       |       |       |        |       |       |       |        
|------------0-----------0-------|5-----------5---5---------------|
|3-------------------------------|--------------------------------|
|--------------------------------|--------------------------------|
|--------------------------------|--------------------------------|

 |       |       |       |        |       |       |       |        
|2-----------2---2---------------|--------------------------------|
|--------------------------------|2-----------2---2---------------|
|--------------------------------|--------------------------------|
|--------------------------------|--------------------------------|

 |       |       |       |        |       |       |       |        
|------------0-------0---0---0---|5-----------5---5---------------|
|3-------------------------------|--------------------------------|
|--------------------------------|--------------------------------|
|--------------------------------|--------------------------------|

 |       |       |       |        |       |       |       |        
|2-----------2---2---------------|--------------------------------|
|--------------------------------|2-----------2---2---------------|
|--------------------------------|--------------------------------|
|--------------------------------|--------------------------------|

 |       |       |       |        |       |       |       |        
|------------0-------0---0---0---|--------------------------------|
|3-------------------------------|3-----------3---3-----------3---|
|--------------------------------|--------------------------------|
|--------------------------------|--------------------------------|

 |       |       |       |        |       |       |       |        
|0-----------0---0---0-------0---|2-----------2---2-------2-------|
|--------------------------------|--------------------------------|
|--------------------------------|--------------------------------|
|--------------------------------|--------------------------------|

 |       |       |       |        |       |       |       |        
|--------------------------------|--------------------------------|
|0---0---0---------------0-------|--------------------------------|
|----------------0---------------|3-----------3---3---------------|
|--------------------------------|--------------------------------|

 |       |       |       |        |       |       |       |        
|2-----------2---2---------------|--------------------------------|
|--------------------------------|2-----------2---2---------------|
|--------------------------------|--------------------------------|
|--------------------------------|--------------------------------|

 |       |       |       |        |       |       |       |        
|------------0-----------0-------|----0-------2-------2---0-------|
|3-------------------------------|2-------2-----------------------|
|--------------------------------|--------------------------------|
|--------------------------------|--------------------------------|

 |       |       |       |        |       |       |       |        
|------------------------0-------|----0-------2-------2---0-------|
|3-----------3---3---------------|2-------2-----------------------|
|--------------------------------|--------------------------------|
|--------------------------------|--------------------------------|

 |       |       |       |        |       |       |       |        
|------------0-------0---0---0---|----0-------2-------2---0-------|
|3-------------------------------|2-------2-----------------------|
|--------------------------------|--------------------------------|
|--------------------------------|--------------------------------|

 |       |       |       |        |       |       |       |        
|------------------------0-------|--------------------------------|
|3-----------3---3---------------|3-----------3---3-------2-------|
|--------------------------------|--------------------------------|
|--------------------------------|--------------------------------|

 |       |       |       |        |       |       |       |        
|--------------------------------|--------------------------------|
|0-----------0---0---------------|0-----------0---0---------------|
|--------------------------------|--------------------------------|
|--------------------------------|--------------------------------|

 |       |       |       |        |       |       |       |        
|0-----------0---0-----------0---|0---0-----------0-------0-------|
|--------------------------------|--------0-----------------------|
|--------------------------------|--------------------------------|
|--------------------------------|--------------------------------|

 |       |       |       |        |       |       |       |        
|5-----------5---5---------------|2-----------2---2---------------|
|--------------------------------|--------------------------------|
|--------------------------------|--------------------------------|
|--------------------------------|--------------------------------|

 |       |       |       |        |       |       |       |        
|--------------------------------|------------0-------0---0-------|
|2-----------2---2---------------|3-------------------------------|
|--------------------------------|--------------------------------|
|--------------------------------|--------------------------------|

 |       |       |       |        |       |       |       |        
|5-----------5---5---------------|2-----------2---2---------------|
|--------------------------------|--------------------------------|
|--------------------------------|--------------------------------|
|--------------------------------|--------------------------------|

 |       |       |       |        |       |       |       |        
|--------------------------------|------------0-------0---0-------|
|2-----------2---2---------------|3-------------------------------|
|--------------------------------|--------------------------------|
|--------------------------------|--------------------------------|

 |       |       |       |        |       |       |       |        
|--------------------------------|0-----------0---0---------------|
|3-----------3---3---------------|--------------------------------|
|--------------------------------|--------------------------------|
|--------------------------------|--------------------------------|

 |       |       |       |        |       |       |       |        
|2-----------2---2---------------|--------------------------------|
|--------------------------------|0---0---0---0---0---0---0---0---|
|--------------------------------|--------------------------------|
|--------------------------------|--------------------------------|

 |       |       |       |        |       |       |       |        
|5---2---7---7---7---------------|----0-------2-------2---0-------|
|--------------------------------|2-------2-----------------------|
|--------------------------------|--------------------------------|
|--------------------------------|--------------------------------|

 |       |       |       |        |       |       |       |        
|------------------------0-------|----0-------2-------2---0-------|
|3-----------3---3---------------|2-------2-----------------------|
|--------------------------------|--------------------------------|
|--------------------------------|--------------------------------|

 |       |       |       |        |       |       |       |        
|------------0-------0---0---0---|----0-------2-------2---0-------|
|3-------------------------------|2-------2-----------------------|
|--------------------------------|--------------------------------|
|--------------------------------|--------------------------------|

 |       |       |       |        |       |       |       |        
|------------------------0-------|--------------------------------|
|3-----------3---3---------------|3-----------3---3-------2-------|
|--------------------------------|--------------------------------|
|--------------------------------|--------------------------------|

 |       |       |       |        |       |       |       |        
|--------------------------------|--------------------------------|
|0-----------0---0---------------|0-----------0---0---------------|
|--------------------------------|--------------------------------|
|--------------------------------|--------------------------------|

 |       |       |       |        |       |       |       |        
|0-----------0---0-----------0---|0---0---0-------0-------0-------|
|--------------------------------|--------------------------------|
|--------------------------------|--------------------------------|
|--------------------------------|--------------------------------|

 |       |       |       |        |       |       |       |        
|5-----------5---5---------------|2-----------2---2---------------|
|--------------------------------|--------------------------------|
|--------------------------------|--------------------------------|
|--------------------------------|--------------------------------|

 |       |       |       |        |       |       |       |        
|--------------------------------|------------0-------0---0---0---|
|2-----------2---2---------------|3-------------------------------|
|--------------------------------|--------------------------------|
|--------------------------------|--------------------------------|

 |       |       |       |        |       |       |       |        
|5-----------5---5---------------|2-----------2---2---------------|
|--------------------------------|--------------------------------|
|--------------------------------|--------------------------------|
|--------------------------------|--------------------------------|

 |       |       |       |        |       |       |       |        
|--------------------------------|------------0-------0---0---0---|
|2-----------2---2---------------|3-------------------------------|
|--------------------------------|--------------------------------|
|--------------------------------|--------------------------------|

 |       |       |       |        |       |       |       |        
|--------------------------------|0-----------0---0---0-------0---|
|3-----------3---3-----------3---|--------------------------------|
|--------------------------------|--------------------------------|
|--------------------------------|--------------------------------|

 |       |       |       |        |       |       |       |        
|2-----------2---2-------2-------|--------------------------------|
|--------------------------------|0---0---0---------------0-------|
|--------------------------------|----------------0---------------|
|--------------------------------|--------------------------------|

 |       |       |       |        |       |       |       |        
|--------------------------------|2-----------2---2---------------|
|--------------------------------|--------------------------------|
|3-----------3---3---------------|--------------------------------|
|--------------------------------|--------------------------------|

 |       |       |       |        |       |       |       |        
|--------------------------------|--------------------------------|
|2-----------2---2---------------|3---------------5---------------|
|--------------------------------|--------------------------------|
|--------------------------------|--------------------------------|

 |       |       |       |        |       |       |       |        
|5-----------5---5---------------|2-----------2---2---------------|
|--------------------------------|--------------------------------|
|--------------------------------|--------------------------------|
|--------------------------------|--------------------------------|

 |       |       |       |        |       |       |       |        
|--------------------------------|------------0-------------------|
|2-----------2---2---------------|3-------------------------------|
|--------------------------------|--------------------------------|
|--------------------------------|--------------------------------|

 |       |       |       |        |       |       |       |        
|5-----------5---5---------------|2-----------2---2---------------|
|--------------------------------|--------------------------------|
|--------------------------------|--------------------------------|
|--------------------------------|--------------------------------|

 |       |       |       |        |       |       |       |        
|--------------------------------|------------0-------------------|
|2-----------2---2---------------|3-------------------------------|
|--------------------------------|--------------------------------|
|--------------------------------|--------------------------------|

 |       |       |       |        |       |       |       |        
|----0-------2-------2---0-------|------------------------0-------|
|2-------2-----------------------|3-----------3---3---------------|
|--------------------------------|--------------------------------|
|--------------------------------|--------------------------------|

 |       |       |       |        |       |       |       |        
|----0-------2-------2---0-------|------------------------0-------|
|2-------2-----------------------|3-----------3---3---------------|
|--------------------------------|--------------------------------|
|--------------------------------|--------------------------------|

 |       |       |       |        |       |       |       |        
|----0-------2-------2---0-------|------------------------0-------|
|2-------2-----------------------|3-----------3---3---------------|
|--------------------------------|--------------------------------|
|--------------------------------|--------------------------------|

 |       |       |       |        |       |       |       |        
|----0-------2-------2---0-------|----------------0---------------|
|2-------2-----------------------|3-----------3-------------------|
|--------------------------------|--------------------------------|
|--------------------------------|--------------------------------|

 |       |       |       |        |       |       |       |        
|--------0---2-------2---0-------|----------------0---------------|
|----2---------------------------|3-------------------------------|
|3-------------------------------|--------------------------------|
|--------------------------------|--------------------------------|

 |       |       |       |        |       |       |       |        
|--------------------------------|--------------------------------|
|--------------------------------|--------------------------------|
|3-------------------------------|--------------------------------|
|--------------------------------|--------------------------------|

 |       |       |       |        
|--------------------------------|
|--------------------------------|
|--------------------------------|
|--------------------------------|
            
Submit corrections


        Young Boy lessons Hard to play? Try these video lessons and learn fast Young Boy lessons
        
↑ Back to top | Tablatures and chords for acoustic guitar and electric guitar, ukulele, drums are parodies/interpretations of the original songs. You may use it for private study, scholarship, research or language learning purposes only