» » »

Wings - To You Bass

Artists:  A B C D E F G H I J K L M N O P Q R S T U V W X Y Z # 

To You Bass

(ver. 1) Click to play this song!
Wings
 Rating:
4.4/5 (8 votes)

 To You lessons Tabs too difficult? Try these video lessons and learn fast
 
                [Intro]
G|---------------------------------|---------------------------------|
D|---------------------------------|---------------------------------|
A|---------------------------------|---------------------------------|
E|---------------------------------|---------------------------------|

G|---------------------------------|---------------------------------|
D|---------------------------------|---------------------------------|
A|---------------------------------|---------------------------------|
E|---------------------------------|---------------------------------|

G|---------------------------------|---------------------------------|
D|---------------------------------|---------------------------------|
A|---------------------------------|---------------------------------|
E|---------------------------------|---------------------------------|

G|---------------------------------|---------------------------------|
D|---------------------------------|---------------------------------|
A|---------------------------------|---------------------------------|
E|---------------------------------|---------------------------------|

[Verse]
G|---------------------------------|---------------------------------|
D|---------------------------------|---------------------------------|
A|5-------5-------5---5---5---5----|---------------------------------|
E|---------------------------------|5---5---5-------5---5---5--------|

G|---------------------------------|---------------------------------|
D|7---\----------------------------|---------------------------------|
A|--------7---\---3---0---0--------|7---7----------------------------|
E|---------------------------------|--------7---\---3---3---2---2----|

[Chorus]
G|---------------------------------|---------------------------------|
D|---------------------------------|---------------------------------|
A|---------------------------------|3---3---2---2---0---0------------|
E|0--------------------------------|------------------------3---3----|

G|---------------------------------|---------------------------------|
D|---------------------------------|---------------------------------|
A|---------------------------------|3---3---2---2---0---0------------|
E|0-------0-------0-------0--------|------------------------3---3----|

G|---------------------------------|
D|---------------------------------|
A|---------------------------------|
E|0---0---0---0---0-------5--------|

[Verse]
G|---------------------------------|---------------------------------|
D|---------------------------------|---------------------------------|
A|5-----------5---5-----------5----|---------------------------------|
E|---------------------------------|5---5---5-------5---5---5--------|

G|---------------------------------|---------------------------------|
D|7---\----------------------------|---------------------------------|
A|--------7---\---3---0---0--------|7---7----------------------------|
E|---------------------------------|--------7---\---3-------2--------|

[Chorus]
G|---------------------------------|---------------------------------|
D|---------------------------------|---------------------------------|
A|---------------------------------|3-------2-------0----------------|
E|0-------0-------0-------0--------|------------------------3--------|

G|---------------------------------|---------------------------------|
D|---------------------------------|---------------------------------|
A|---------------------------------|3---3---2---2---0---0------------|
E|0---0---0---0---0---0---0---0----|------------------------3---3----|

G|---------------------------------|
D|---------------------------------|
A|---------------------------------|
E|0---0---0---0---0-------0--------|

[Interlude]
G|---------------------------------|---------------------------------|
D|---------------------------------|---------------------------------|
A|3---3-----------3---3------------|5---5-----------5---5------------|
E|--------3---------------3--------|--------3---------------3--------|

G|---------------------------------|---------------------------------|
D|---------------------------------|---------------------------------|
A|3---3-----------3---3------------|5---5-----------5---5/7-----5----|
E|--------3---------------3--------|--------3------------------------|

G|---------------------------------|---------------------------------|
D|---------------------------------|---------------------------------|
A|3---3-----------3---3------------|5---5-----------5---5------------|
E|--------3---------------3--------|--------3---------------3--------|

G|---------------------------------|---------------------------------|
D|---------------------------------|---------------------------------|
A|3---3-----------3---3------------|---------------------------------|
E|--------3---------------3--------|3---2---3------------------------|

[Verse]
G|---------------------------------|---------------------------------|
D|---------------------------------|7---\----------------------------|
A|5---\----------------------------|------------------------7---\----|
E|---------------------------------|---------------------------------|

G|---------------------------------|---------------------------------|
D|---------------------------------|---------------------------------|
A|0---0---2---2---3---3-/-5---5-/--|7---7----------------------------|
E|---------------------------------|--------7---\---3---3---2---2----|

[Chorus]
G|---------------------------------|---------------------------------|
D|---------------------------------|---------------------------------|
A|---------------------------------|3-------2-------0---0------------|
E|0-------0-------0---0---0---0----|------------------------3---3----|

G|---------------------------------|---------------------------------|
D|---------------------------------|---------------------------------|
A|---------------------------------|3---3---2---2---0---0------------|
E|0---0---0---0---0---0---0---0----|------------------------3---3----|

G|---------------------------------|---------------------------------|
D|---------------------------------|---------------------------------|
A|----------------7-------7---\----|3---3---2---2---0---0------------|
E|0---0---0-/-7--------------------|------------------------3---3----|

G|---------------------------------|---------------------------------|
D|---------------------------------|---------------------------------|
A|----------------7---\------------|3---3---2---2---0---0------------|
E|0---0---0-/-7--------------------|------------------------3---3----|

G|---------------------------------|
D|---------------------------------|
A|----------------7-------7---\----|
E|0---0---0-/-7--------------------|

[Solo]
G|---------------------------------|---------------------------------|
D|---------------------------------|---------------------------------|
A|3---3-----------3---3-------/----|7---7-----------7---7------------|
E|--------3---------------3--------|--------7---\-----------0--------|

G|---------------------------------|---------------------------------|
D|---------------------------------|---------------------------------|
A|3---3-----------3---3-------/----|7---7-----------7---7------------|
E|--------3---------------3--------|--------7---\-----------0--------|

G|---------------------------------|---------------------------------|
D|---------------------------------|---------------------------------|
A|3---3-----------3---3---3-/-7----|7---7---7---5---5---5---5---3----|
E|--------3------------------------|---------------------------------|

G|---------------------------------|---------------------------------|
D|---------------------------------|---------------------------------|
A|3---3---2---2---0---0------------|----------------7---7---5---5----|
E|------------------------3---3----|0---0---0-/-7--------------------|

G|---------------------------------|---------------------------------|
D|---------------------------------|---------------------------------|
A|3---3---2---2---0---0------------|----------------7---7---5---5----|
E|------------------------3---3----|0---0---0-/-7--------------------|

G|---------------------------------|---------------------------------|
D|---------------------------------|---------------------------------|
A|3---3---2---2---0---0------------|---------------------------------|
E|------------------------3---3----|0---0---0---0---0---0---0---0----|

G|---------------------------------|---------------------------------|
D|---------------------------------|---------------------------------|
A|3---3-----------3---3------------|5---5-----------5---5------------|
E|--------3---------------3--------|--------3---------------3--------|

G|---------------------------------|---------------------------------|
D|---------------------------------|---------------------------------|
A|3---3-----------3---3------------|5---5-----------5---5/7-----5----|
E|--------3---------------3--------|--------3------------------------|

G|---------------------------------|---------------------------------|
D|---------------------------------|---------------------------------|
A|3---3-----------3---3------------|5---5-----------5---5------------|
E|--------3---------------3--------|--------3---------------3--------|

G|---------------------------------|---------------------------------|
D|---------------------------------|---------------------------------|
A|3---3-----------3---3------------|---------------------------------|
E|--------3---------------3--------|3---2---3------------------------|

[Verse]
G|---------------------------------|---------------------------------|
D|---------------------------------|7---\----------------------------|
A|5---\----------------------------|------------------------7---\----|
E|---------------------------------|---------------------------------|

G|---------------------------------|---------------------------------|
D|---------------------------------|---------------------------------|
A|0---0---2---2---3---3-/-5---7----|7--------------------------------|
E|---------------------------------|----------------3---3-------0----|

[Chorus]
G|---------------------------------|---------------------------------|
D|---------------------------------|---------------------------------|
A|---------------------------------|3---3---2---2---0---0------------|
E|0---0-------0---0---0---0---0----|------------------------3---3----|

G|---------------------------------|---------------------------------|
D|---------------------------------|---------------------------------|
A|---------------------------------|3---3---2---2---0---0------------|
E|0---0---0---0---0---0---0---0----|------------------------3---3----|

G|---------------------------------|---------------------------------|
D|---------------------------------|---------------------------------|
A|---------------------------------|3---3---2---2---0---0------------|
E|0---0---0-------0---0---0--------|------------------------3---3----|

G|---------------------------------|---------------------------------|
D|---------------------------------|---------------------------------|
A|----------------7-------5---\----|3---3---2---2---0---0------------|
E|0---0---0-/-7--------------------|------------------------3---3----|

G|---------------------------------|
D|---------------------------------|
A|----------------7---7---5---5----|
E|0---0---4---7--------------------|

[Solo]
G|---------------------------------|---------------------------------|
D|---------------------------------|---------------------------------|
A|3---3---2---2---0---0------------|----------------7---7---7---5----|
E|------------------------3---3----|0---0---4---7--------------------|

G|---------------------------------|---------------------------------|
D|---------------------------------|---------------------------------|
A|3---3-----------3---3-------/----|7---7-----------7-------7--------|
E|--------3---------------3--------|--------0-----------0-------0----|

G|---------------------------------|---------------------------------|
D|---------------------------------|---------------------------------|
A|3---3-----------3---3---3-/-7----|7---7---------------7-------7----|
E|--------3------------------------|--------0-------0-------0--------|

G|---------------------------------|---------------------------------|
D|---------------------------------|---------------------------------|
A|3---3-----------3---3------------|7---7-----------7---7---5---5----|
E|--------3---------------3--------|--------7------------------------|

[Chorus]
G|---------------------------------|---------------------------------|
D|---------------------------------|---------------------------------|
A|3---3---2---2---0---0------------|----------------7-------7---\----|
E|------------------------3---3----|0---0---0-/-7--------------------|

G|---------------------------------|---------------------------------|
D|---------------------------------|---------------------------------|
A|3---3---2---2---0---0------------|----------------7---7---5---5----|
E|------------------------3---3----|0---0---0-/-7--------------------|

G|---------------------------------|---------------------------------|
D|---------------------------------|---------------------------------|
A|3---3---2---2---0---0------------|----------------7-------5---\----|
E|------------------------3---0----|0---0---0-/-7--------------------|

G|---------------------------------|---------------------------------|
D|---------------------------------|---------------------------------|
A|3---3---2---2---0---0------------|----------------7-------5---\----|
E|------------------------3---0----|0---0---0-/-7--------------------|

G|---------------------------------|---------------------------------|
D|---------------------------------|---------------------------------|
A|3---3---2---2---0---0------------|----------------7-------5---5--\-|
E|------------------------3---0----|0---0---0-/-7--------------------|

G|---------------------------------|---------------------------------|
D|---------------------------------|---------------------------------|
A|3-------2-------0----------------|----------------7-------5---\----|
E|--------------------3---3---0----|0---0---0-/-7--------------------|

G|---------------------------------|---------------------------------|
D|---------------------------------|---------------------------------|
A|3---3---2---2---0----------------|----------------7---7---5---5--\-|
E|--------------------3---3---0----|0---0---0-/-7--------------------|

G|---------------------------------|---------------------------------|
D|---------------------------------|---------------------------------|
A|3---3---2---2---0---0------------|----------------7-------5---5--\-|
E|------------------------3---0----|0---0---0-/-7--------------------|

            
Submit corrections


        To You lessons Hard to play? Try these video lessons and learn fast To You lessons
        
↑ Back to top | Tablatures and chords for acoustic guitar and electric guitar, ukulele, drums are parodies/interpretations of the original songs. You may use it for private study, scholarship, research or language learning purposes only