» » »

Wings - Silly Love Songs Bass

Artists:  A B C D E F G H I J K L M N O P Q R S T U V W X Y Z # 

Silly Love Songs Bass

(ver. 1) Click to play this song!
Wings
 Rating:
2.7/5 (29 votes)

 Silly Love Songs lessons Tabs too difficult? Try these video lessons and learn fast
 
                INTRO: Piano + mechanical noise
            Bass starts: 00:15
G|----------|----------|------------|----------|--------|-
D|:--------:|----------|------------|----------|-----^5~|-
A|:--------:|33-----3--|------------|----------|--------|-
E|----------|--5533---5|0-11-3--3-2-|1-1--1111-|--------|-
 

VERSE1: 00:22
G|----------|-----------|----------|----------|-
D|----------|-----------|----------|----------|-
A|33-----3--|-----------|--------3-|----3-5-3-|- PLAY X3
E|--5533---5|0-11-3--3-2|-1-33-5---|-3-5------|-
You'd Think That People Would Have Had Enought Of Silly Love Songs.
But I Look Around Me And I See It Isn't So.
Some People Wanna Fill The World With Silly Love Songs.
 
PRE-CHORUS1: 00:46
G|--------|--------|--------|----------|--------|--------|--------|--------|-
D|--------|--------|--------|-------5/7|5~------|--------|-0-2-3-4|5-------|-
A|--------|--------|--------|----------|--------|--------|--------|--------|-
E|0~------|--------|1~------|----------|--------|--------|--------|-33-335-|-
And What's Wrong With That?
I'd Like To Know, 'Cause Here I Go Again
 
CHORUS1: 01:02
G|----------|-----------|----------|----------|-
D|----------|-----------|----------|----------|-
A|33-----3--|-----------|--------3-|----3-5-3-|- PLAY X6
E|--5533---5|0-11-3--3-2|-1-33-5---|-3-5------|-
I Love You, I Love You,
I Love You, I Love You.
 
I Can't Explain The Feeling's Plain To Me; Say Can't You See?
Ah, She Gave Me More, She Gave It All To Me
Now Can't You See,
 
PRE-CHORUS2: 01:48
G|--------|--------|--------|----------|--------|--------|--------|--------|-
D|--------|--------|--------|-------5/7|5~------|--------|-0-2-3-4|5-------|-
A|--------|--------|--------|----------|--------|--------|--------|--------|-
E|0~------|--------|1/--7~--|----------|--------|--------|--------|-33-335-|-
What's Wrong With That
I Need To Know, 'Cause Here I Go Again
 
CHORUS2: 02:03
G|----------|-----------|----------|----------|-
D|----------|-----------|----------|----------|-
A|33-----3--|-----------|--------3-|----3-5-3-|- PLAY X2
E|--5533---5|0-11-3--3-2|-1-33-5---|-3-5------|-
I Love You, I Love You.
 
BRIDGE: 02:19
G|--------|--------|--------|------|--------|--------|------|--------|--------|---------
D|--------|--------|--------|------|--------|--------|------|--------|--------|---------
A|.-------|----3---|3-5-----|------|-53-----|--------|------|----3---|-3-5----|3-5--3-5-
E|0-------|-35---5-|--------|-0----|----5-3-|-5-3----|0-----|-35---5-|--------|---------
 
G|---------|--------|--------|-
D|-----333-|33333333|--3\----|-
A|-3-5-----|--------|-----5--|-
E|---------|--------|--------|-
Love Doesn't Come In A Minute,
Sometimes It Doesn't Come At All
I Only Know That When I'm In It
It Isn't Silly, No, It Isn't Silly, Love Isn't Silly At All.
 
INSTRUMENTAL 1: 02:40
G|----------|-----------|----------|----------|-
D|----------|-----------|----------|----------|-
A|33-----3--|-----------|--------3-|----3-5-3-|- PLAY X4
E|--5533---5|0-11-3--3-2|-1-33-5---|-3-5------|-
 
BREAK1: 03:12
G|--------|--------|--------|--------|--------|--------|--------|--------|-
D|--------|--------|--------|--------|--------|--------|--------|--------|-
A|3------/|7-------|8-----8\|--------|3------/|7-------|8-------|--------|-
E|--------|--------|--------|1-----3-|--------|--------|--------|1---1-3-|-
How Can I Tell You About My Loved One?
How Can I Tell You About My Loved One? (I Love You)
                                                                    
G|--------|--------|--------|--------||-----5-5---|----4-4----|-----5-5---|---------|-
D|--------|--------|--------|--------||---------5-|-2g------5-|-3g--------|3333333--|-
A|3------/|7-------|8-------|--------||-3g--------|-----------|---------5-|-------5-|-
E|--------|--------|--------|1--11-3-||-----------|-----------|-----------|---------|-
How Can I Tell You About My Loved One?
How Can I Tell You About My Loved One? (I Love You)
 
INSTRUMENTAL 2: 03:41
G|----------|-----------|----------|----------|-
D|----------|-----------|----------|----------|-
A|33-----3--|-----------|--------3-|----3-5-3-|- PLAY X4
E|--5533---5|0-11-3--3-2|-1-33-5---|-3-5------|-
 
BREAK 2: 04:12                                     x4
G|--------|--------|--------|--------||----------|----|----|----|----|-
D|--------|--------|--------|--------||:--------:|----|2---|-3--|----|-
A|3~~~~~~/|7~~~~~~~|8~~~~~~\|--------||:--------:|3---|----|----|----|-
E|--------|--------|--------|1~~~~/--||----------|----|----|----|----|-
- I Love you 
- I Love you 
- I Love you 
(I Can't Explain The Feeling's Plain To Me; Say Can't You See?)
- I Love you
(Ah, he Gave Me More, he Gave It All To Me - Say Can't You See)
 
G|--------|--------|--------|--------||--------|--------|---------|--------|-
D|--------|--------|--------|--------||--------|--------|---------|--------|-
A|3-------|7-------|8-------|--------||3-------|7-------|8--------|--------|-
E|--------|--------|------8\|111---3-||--------|--------|-------8\|111---3-|-
- I Love you   
(I Can't Explain The Feeling's Plain To Me; Say Can't You See?)
* How Can I Tell You About My Loved One?
(Ah, he Gave Me More, he Gave It All To Me - Say Can't You See)
* How Can I Tell You About My Loved One?
 
G|-----5-5---|----4-4----|-----5-5---|-----------||-
D|---------5-|-2g------5-|-3g--------|-----------||-
A|-3g--------|-----------|---------5-|---------5-||- x2
E|-----------|-----------|-----------|-3g--3-5---||-
- I Love you
(I Can't Explain The Feeling's Plain To Me; Say Can't You See?)
* How Can I Tell You About My Loved One?
 
G|-----5-5---|----4-4----|-----5-5---|-----------|-
D|---------5-|-2g------5-|-3g--------|-----------|-
A|-3g--------|-----------|---------5-|---------5-|-
E|-----------|-----------|-----------|-3g--3-5---|-
- I Love you
G|----------|-----------|----------|---------|-
D|----------|-----------|----------|---------|-
A|33-----3--|-----------|--------3-|------10\|-
E|--5533---5|0-11-3--3-2|-1-33-5---|55-------|-
(Ah, he Gave Me More, he Gave It All To Me - Say Can't You See)
* How Can I Tell You About My Loved One?
 

OUTRO: 05:20
G|----------|-----------|----------|----------|-
D|----------|-----------|----------|----------|-
A|33-----3--|-----------|--------3-|----3-5-3-|- PLAY X4
E|--5533---5|0-11-3--3-2|-1-33-5---|-3-5------|-
 
G|-----------|-----------|----------|----------||----------|-----------|---------|--------
D|-----------|-----------|----------|----------||----------|-----------|---------|--------
A|3~------3--|-----------|--------3-|----3-5-3-||33-----3--|-----------|--------3|---3-5-3
E|--5533----5|0-11-3--3-2|-1-33-5---|-3-5------||--5533---5|0-11-3--3-2|-1-33-5--|3-5-----
You'd Think That People Would Have Had Enough Of Silly Love Songs.
But I Look Around Me And I See It Isn't So... Oh, no!

G|----------|-----------|----------|----------||-----------|-----------|----------|------
D|----------|-----------|----------|----------||-----------|-----------|----------|------
A|33-----3--|-----------|--------3-|----3-5-3-||-----------|-----------|----------|------
E|--5533---5|0-11-3--3-2|-1-33-5---|-3-5------||0-0~~~~~~~~|~~~~~~~~~~~|~~~~~~~~~~|~~~~~-
Some People Wanna Fill The World With Silly Love Songs.
And What's Wrong With That?.............
 

End: 05:54
            
Submit corrections


        Silly Love Songs lessons Hard to play? Try these video lessons and learn fast Silly Love Songs lessons
        
↑ Back to top | Tablatures and chords for acoustic guitar and electric guitar, ukulele, drums are parodies/interpretations of the original songs. You may use it for private study, scholarship, research or language learning purposes only