» » »

Wings - Misteri Mimpi Syakilla Tabs

Artists:  A B C D E F G H I J K L M N O P Q R S T U V W X Y Z # 

Misteri Mimpi Syakilla Tabs

(ver. 1) Click to play this song!
Wings
 Rating:
4/5 (4 votes)

 Misteri Mimpi Syakilla lessons Tabs too difficult? Try these video lessons and learn fast
 
                WINGS - Misteri Mimpi Syakilla (solo)


Key:

^  - bend
^^ - full bend
h  - hammer on
p  - pull off
r  - release bend
/  - slide down
\  - slide up
~  - vibrato
() - finger tap



G   Bb        A
Aku pun tak tahu...oh...oh...


     A
e|--------------------------------|------------|
B|--/11-10h11p10-8-6--5-----------|------------|
G|--------------------------------|------------|
D|--------------------------------|------------|
A|--------------------------------|------------|
E|--------------------------------|------------|


    Dm                                                           Bb
e|------------------------------------------------------------------------|
B|--10h11p10h11p10h11p10---8h10p8h10p8h10p8---6h8p6h8p6h8p6---5--6p5-6----|
G|------------------------------------------------------------------------|
D|------------------------------------------------------------------------|
A|------------------------------------------------------------------------|
E|------------------------------------------------------------------------|


  C                   A                     Dm
e|---------------------------------13h15p13-12-13-------|
B|----5---6-5h6p5-----6p5-------------------------15----|
G|----------------7-5-----------------------------------|
D|--7---7-----------------7-----------------------------|
A|------------------------------------------------------|
E|------------------------------------------------------|


             Bb                C
e|---------------------------------------10-----10---------|
B|--13h15p13-11----13-13--------------10----13^----11-13---|
G|-------------------------------12^^----------------------|
D|---------------------------------------------------------|
A|---------------------------------------------------------|
E|---------------------------------------------------------|


    A
e|-------------------------------------------------------------------|
B|--11h13p11h13p11h13p11---10h11p10h11p10h11p10---8h10p8h10p8h10p8---|
G|-------------------------------------------------------------------|
D|-------------------------------------------------------------------|
A|-------------------------------------------------------------------|
E|-------------------------------------------------------------------|


                       Dm                         Bb
e|--------------------------------------------------------------------|
B|--6h8p6h8p6h8p6---5--6p5------------------15-17-17^--15h17p15-------|
G|-------------------------7-5-7--------/14---------------------15----|
D|--------------------------------------------------------------------|
A|--------------------------------------------------------------------|
E|--------------------------------------------------------------------|



             C                            A
e|-----------20-20-----18-17-15-17-----------------17----15h17p15----------|
B|--20^^r-18---------------------------15-17-18-17----------------18-17----|
G|-------------------------------------------------------------------------|
D|-------------------------------------------------------------------------|
A|-------------------------------------------------------------------------|
E|-------------------------------------------------------------------------|


     Dm                           Bb
e|--13p12-----------------------------------------|
B|--------15-13-15------------5---6p5-------------|
G|------------------------------------7-5-7-------|
D|-------------------------/7---7-----------------|
A|------------------------------------------------|
E|------------------------------------------------|


                               C                      A
e|-----------------------17-18-20---------18p17----17----------|
B|--------------17-18-20------------------------20----20^^r----|
G|--------17-19------------------------------------------------|
D|--17-19------------------------------------------------------|
A|-------------------------------------------------------------|
E|-------------------------------------------------------------|


                                                                   C
e|----------------------------17-15h17p15--------------------------------|
B|--18h20p18-17-18-17^-----15-------------18-17-15-17-17^r-17^r----13----|
G|-----------------------------------------------------------------------|
D|-----------------------------------------------------------------------|
A|-----------------------------------------------------------------------|
E|-----------------------------------------------------------------------|


C                     Bb
Bila pun engkau menjelma...



Guitar tabs by rizalwahap
            
Submit corrections


        Misteri Mimpi Syakilla lessons Hard to play? Try these video lessons and learn fast Misteri Mimpi Syakilla lessons
        
↑ Back to top | Tablatures and chords for acoustic guitar and electric guitar, ukulele, drums are parodies/interpretations of the original songs. You may use it for private study, scholarship, research or language learning purposes only