» » »

Wings - Mamunia Bass

Artists:  A B C D E F G H I J K L M N O P Q R S T U V W X Y Z # 

Mamunia Bass

(ver. 1) Click to play this song!
Wings
 Rating:
4/5 (4 votes)

 Mamunia lessons Tabs too difficult? Try these video lessons and learn fast
 
                Intro/Chorus:

G|----------------------------------------------|
D|----------------------------------------------|
A|-----7----7----7----7----7----7-7---7---------|
E|-5--5-5--5-5--5-5--5-5--5-5--5--------7-7--5--|

G|----------------------------------------------|
D|----------------------------------------------|
A|---7----7----7----7----7----7-----7--7-7------|
E|--5-5--5-5--5-5--5-5--5-5--5-5--5--------7-5--|

Bridge:

G|----------------------------------7---------------------|
D|--------------------------------------------------------|
A|-------5/7----------5/7-----5----------5-5-5-7-7-7------|
E|-0------------0--------------------------------------5--|

G|---------------------------------------------|
D|---------------------------------------------|
A|--7----7----7----7----7-----7--7-7-----------|
E|-5-5--5-5--5-5--5-5--5-5--5--------7-5----5--|

Verse:

G|---------------------------------|---------------------------------|
D|---------------------------------|---------------------------------|
A|--3---2-------------------3------|--3---2--------------------------|
E|----------5---3---2---1-------3--|----------5---3---2---2----------|

G|---------------------------------|
D|---------------------------------|
A|---------------------------------|
E|--1--3--5-----1--3---------------|


G|---------------------------------|---------------------------------|
D|---------------------------------|---------------------------------|
A|--3---2------------------3-------|--3---2--------------------------|
E|---------5---3---2---1-------3---|----------5---3---2---2---1---1--|

Bridge 2:

G|-----------------------------|
D|-----------------------------|
A|--3---2----------------------|
E|----------5------------------|


Chorus


Verse



G|---------------------------------|
D|---------------------------------|
A|---------------------------------|
E|--1--3--5-----1--3---------------|

G|---------------------------------|
D|---------------------------------|
A|--3---2--------------------------|
E|----------5---3---2---2----------|

G|---------------------------------|
D|---------------------------------|
A|---------------------------------|
E|--1--3--5-----1--3---------------|

Intermission:

G|----------------------------------------------------------------------|
D|---------------------------2--2-2--2----------------------------------|
A|--------------3--3-3--3-5------------5--3--3-3-3--------5-5---5-5--5-5|
E|-3--3-3--3-5------------------------------------------5------5----5---|

G|---------------------------------|
D|---------------------------------|
A|---5-5--3-3--2-2-----------------|
E|-----------------5-5--3-3-3------|

Verse:

G|---------------------------------|---------------------------------|
D|---------------------------------|---------------------------------|
A|--3---2------------------3-------|--3---2--------------------------|
E|---------5---3---2---1-------3---|----------5---3---2---2---1---1--|


Bridge 2

Chorus
            
Submit corrections


        Mamunia lessons Hard to play? Try these video lessons and learn fast Mamunia lessons
        
↑ Back to top | Tablatures and chords for acoustic guitar and electric guitar, ukulele, drums are parodies/interpretations of the original songs. You may use it for private study, scholarship, research or language learning purposes only