» » »

Wings - Live And Let Die Tabs

Artists:  A B C D E F G H I J K L M N O P Q R S T U V W X Y Z # 

Live And Let Die Tabs

(ver. 1) Click to play this song!
Wings
 Rating:
3.4/5 (5 votes)

 Live And Let Die lessons Tabs too difficult? Try these video lessons and learn fast
 
                this isnt verry good as iam not verry good at tabbing out songs but this is the song 
the james bond film live and let die and i tryed really hard to pick it out
if u think it sounds wron lift the 2-4-5 ect up a fret
*live and let die*


p=pull off
[-2-4-5-----------]
[-------2-4-5-----]
[-------------4p2-]
[-----------------]
[-----------------]
[-----------------] x4

[-5----3-----------]
[-5----3-----------]
[-5----3-----------]
[-7----5-----------]
[-7----5-----------]
[-5----3-----------]

[-----12--------12----------12-----------12----------12-----]
[---12---12--13----13----14----14-----13----12----12---12---]
[-12-------12---------12----------12-----------12--------12-]
[-----------------------------------------------------------]
[-----------------------------------------------------------]
[-----------------------------------------------------------] x4

then repeat begining i think this tabiture is right im not sure if iam not then leave a 
on my board
            
Submit corrections


        Live And Let Die lessons Hard to play? Try these video lessons and learn fast Live And Let Die lessons
        
↑ Back to top | Tablatures and chords for acoustic guitar and electric guitar, ukulele, drums are parodies/interpretations of the original songs. You may use it for private study, scholarship, research or language learning purposes only