» » »

Wings - Listen To What The Man Said Bass

Artists:  A B C D E F G H I J K L M N O P Q R S T U V W X Y Z # 

Listen To What The Man Said Bass

(ver. 1) Click to play this song!
Wings
 Rating:
2.4/5 (30 votes)

 Listen To What The Man Said  lessons Tabs too difficult? Try these video lessons and learn fast
 
                 Intro
  Q=114
 4/4
  Gtr I
  E. S a Q  E. S a Q    E. S a Q  E. S a Q
|---------------------|---------------------|
|---------------------|---------------------|
|------4s5-------4s5--|------4s5-------4s5--|
|-3--3------3--3------|-3--3------3--3------|


  E. S a Q  E. S a Q    E. S a Q  E. S a Q
|---------------------|-----------------------|
|---------------------|-----------------------|
|------4s5-------4s5--|------4s5-------4s5----|
|-3--3------3--3------|-3--3------3--3--------|


  E. S a Q  E. S a Q    E. S a Q  E. S a Q
|---------------------|---------------------|
|---------------------|---------------------|
|------4s5-------4s5--|------4s5-------4s5--|
|-3--3------3--3------|-3--3------3--3------|


  E. S a Q  E. S a Q    E. S a Q  E E e e
|---------------------|---------------------||
|---------------------|---------------------||
|------4s5-------4s5--|------4s5------2-5---||
|-3--3------3--3------|-3--3------3-5-------||


   1st & 2nd Verses
    Q  Q  Q  E E   Q  Q  E. S E E   Q  E. S E E E E   Q.   E Q  Q
||---------------|----------------|-----------4-----|---------------|
||o--------------|----------------|-------------4-3-|-2----2-2------|
||o-5--5--5--5-4-|-3--3--3--2-3-3-|-2--2--0-2-------|-----------1---|
||---------------|----------------|-----------------|---------------|


  E. S e e E. S Q     E. S Q  E. S E E   E. S Q  E. S Q    E. S Q  e e e e
|-------------------|------------------|-----------------|-----------------|
|-------------------|------------------|-----------------|-----------------|
|------7-7------7\--|-2--2----2--2---2-|-3--3----3--3----|-3--3----3-2-3-5-|
|-5--5-----5--5-----|------2-------2---|------3-------3--|------3----------|


  E. S a Q  E. S a Q    E. S a Q  E. S a Q
|---------------------|---------------------|
|---------------------|---------------------|
|------4s5-------4s5--|------4s5-------4s5--|
|-3--3------3--3------|-3--3------3--3------|


                       1.
  E. S a Q  E. S a Q    E. S a Q  E E e e
|---------------------|----------------------||
|---------------------|---------------------o||
|------4s5-------4s5--|------4s5------2-5---o||
|-3--3------3--3------|-3--3------3-5--------||


                         Chorus
  2.
                      $
  E. S a Q  E. S a Q      Q  Q  Q  E E   Q.   E Q  E E   E. S Q  E. S E E
|---------------------||---------------|---------------|--------------------|
|---------------------||o--------------|---------------|--------------------|
|------4s5-------4s5--||o----3--5--5-5-|-5----5-5--5-5-|------5-------5-5---|
|-3--3------3--3------||--3------------|---------------|-3--3----3--3-------|


  E. S E E a E E E E   Q.   E Q.   E   Q.   E E e e e   E. S E E E. S E E
|--------------------|---------------|----------------|-------------------|
|-5--5-----5s7-5-----|---------------|----------------|-------------------|
|------5-7-------7-5-|-3------3------|-3------3-2-3-5-|------5-5------5-5-|
|--------------------|------3------3-|------3---------|-3--3-----3--3-----|


                                                           Interlude
  E. S E E E E E E   E. S E E E. S E E   E E E E E E E E    Q  E E E. S a E E
|------------------|-------------------|-----------------||-------------------|
|----------5-5-----|-------------------|-5-7-9-7-5-------||--------5--5-------|
|------5-5-----5-7-|------5-5------5-5-|-----------7-5---||----5-5------4s5-5-|
|-3--3-------------|-3--3-----3--3-----|---------------7-||-3-----------------|


                                    To Coda
  E. S a Q  E. S a Q    E. S a Q  E. S a Q
|---------------------|---------------------|
|---------------------|---------------------|
|------4s5-------4s5--|------4s5-------4s5--|
|-3--3------3--3------|-3--3------3--3------|


                      Sax Solo
 1.
  E. S a Q  E E e e    Q  Q  E Q  E
|-------------------||---------------|
|-------------------||---------------|
|------4s5------2-5-||-5--5--5-5--4--|
|-3--3------3-5-----||---------------|


  E. S E E E. S E E   E. S Q  E. S E E   Q.   E Q  Q    Q.   E E. S E E
|-------------------|------------------|--------------|-----------------|
|-------------------|--------------4-3-|-2----2-2-----|-----------------|
|-3--3-----3--3---3-|-2--2----2--5-----|-----------1--|------7------7---|
|------3-3------3---|------2-----------|--------------|-5------5--5---5-|


  E. S E E E. S E E   E. S Q  E. S E E
|-------------------|------------------|
|-------------------|------------------|
|-2--2---2-2--2---2-|-3--3----3--3-----|
|------2--------2---|------3-------3-3-|


                     Interlude
  E. S E E E e e e    E. S a Q  E. S a Q
|------------------||-----------------------|
|------------------||-----------------------|
|-3--3---3-3-2-3-5-||------4s5-------4s5----|
|------3-----------||-3--3------3--3--------|


  E. S a Q  E. S a Q    E. S a Q  E. S a Q
|---------------------|---------------------|
|---------------------|---------------------|
|------4s5-------4s5--|------4s5-------4s5--|
|-3--3------3--3------|-3--3------3--3------|


                       2.
                              D.S. al Coda
  E. S a Q  E E e e     E. S a Q  E e e e
|--------------------||----------------------||
|-------------------o||----------------------||
|------4s5------2-5-o||------4s5-------------||
|-3--3------3-5------||-3--3------3-3-3-3----||


                      Bridge
  &
  E. S a Q  E E e e    H    Q.   E   +E  Q  E Q  Q    H    E Q  E
|-------------------||-------------|----------------|-------------|
|-------------------||-------------|----------------|-------------|
|------4s5------5-5-||------5------|----------5--5--|------5-5----|
|-3--3------3-3-----||-3---------3-|-(3)-3--3-------|-3---------3-|


  +E  E E E Q  Q    Q.   E E Q  E   +E  E E E Q  Q    Q.   E E Q  E
|-----------------|---------------|-----------------|---------------|
|-----------------|---------------|-----------------|---------------|
|-------2-3-5--5--|--------5-5----|-------2-3-5--5--|--------5-5----|
|-(3)-3-----------|-3----3------3-|-(3)-3-----------|-3----3------3-|


                   Interlude
                                                              Q=80
  +E  E Q  Q  Q     E. S a Q  E. S a Q    E. S a Q  E. S Q    W
|----------------||---------------------|-------------------|------|
|----------------||---------------------|-------------------|------|
|----------5--5--||------4s5-------4s5--|------4s5-------5--|------|
|-(3)-3-3--------||-3--3------3--3------|-3--3------3--3----|-3----|


                    Outro
  Q=66
  +Q.   E +Q.   E    H.      Q    H.      Q    Q.   E Q  Q
|-----------------||------------|------------|--------------|
|-----------------||------------|------------|--------------|
|-----------------||------------|-7-------7--|-----------5--|
|-(3)---3-(3)---5-||-7-------7--|------------|-7----7-7-----|


  H    Q.   E   Q.   E Q  Q    W          W          +W
|-------------|--------------|----------|----------|--------*|
|-------------|--------------|----------|----------|--------*|
|-7-----------|-----------5--|-7--------|----------|--------*|
|------0----5-|-7----7-7-----|----------|-0--------|-(0)----*|            
Submit corrections


        Listen To What The Man Said  lessons Hard to play? Try these video lessons and learn fast Listen To What The Man Said  lessons
        
↑ Back to top | Tablatures and chords for acoustic guitar and electric guitar, ukulele, drums are parodies/interpretations of the original songs. You may use it for private study, scholarship, research or language learning purposes only