» » »

Wings - Getting Closer Bass

Artists:  A B C D E F G H I J K L M N O P Q R S T U V W X Y Z # 

Getting Closer Bass

(ver. 1) Click to play this song!
Wings
 Rating:
4/5 (4 votes)

 Getting Closer lessons Tabs too difficult? Try these video lessons and learn fast
 
                -------------------------------------------------------------------------------
                             Getting Closer - Wings
-------------------------------------------------------------------------------

Tuning: Standard

 ( intro )
  say you don't love him
G|-------------------------------------|---------------------------------|
D|-------------------------------------|---------------------------------|
A|------------7-5--99-7-5-4-55-4---4---|--------7-5--99-7-5-4-55-4---4---|
E|-5-----------------------------7---5-|---------------------------7---5-|

                                      I'm getting closer
G|-----------------------------------------------------------------------|
D|---77---77---77---77---77---77---77---77---77---77---77---77---77---77-|
A|-----------------------------------------------------------------------|
E|-5----5----5----5----5----5----5----5----5----5----5----5----5----5----|

                 keeping ahead of the rain
G|------------|------------------------|-------------------------|
D|-55-44-22---|------------------------|---77-55----55-----------|
A|----------5-|---44-55-66-77-55-44----|---------77----77--55-44-|
E|------------|55-------------------77-|55-----------------------|

  radio play me
G|-------------------------|------------------------|-----------------|
D|-------------------------|---77-55----55----------|-----------------|
A|----44-55-66-77-55-44----|---------77----77-55-44-|-5-55-55-5-5h77--|
E|-55-------------------77-|55----------------------|---------------5-|

  when will you see me
G|-----------------------------------|---------------------------------|
D|-----------------------------------|---------------------------------|
A|----------7-5--99-7-5-4-55-4---4---|--------7-5--99-7-5-4-55-4---4---|
E|-----------------------------7---5-|---------------------------7---5-|

                                   I'm getting closer
G|-----------------------------------------------------------------------|
D|---77---77---77---77---77---77---77---77---77---77---77---77---77---77-|
A|-----------------------------------------------------------------------|
E|-5----5----5----5----5----5----5----5----5----5----5----5----5----5----|

                  hitting the tears will make it a joke
G|------------|------------------------|-------------------------|
D|-55-44-22---|------------------------|---77-55----55-----------|
A|----------5-|---44-55-66-77-55-44----|---------77----77--55-44-|
E|------------|55-------------------77-|55-----------------------|


  radio play me
G|-------------------------|------------------------|-----------------|
D|-------------------------|---77-55----55----------|-----------------|
A|----44-55-66-77-55-44----|---------77----77-55-44-|-5-55-55-5-5h77--|
E|-55-------------------77-|55----------------------|---------------5-|

   I'm getting closer
G|-------------------------------------|---------------------------------|
D|-------------------------------------|---------------------------------|
A|------------7-5--99-7-5-4-55-4---4---|--------7-5--99-7-5-4-55-4---4---|
E|-5-----------------------------7---5-|---------------------------7---5-|

                  I'm getting closer
G|----------------------------------------------------------------------------|
D|---77---77---77---77---77---77---77---77---77---77---77---77---77---77---77-|
A|----------------------------------------------------------------------------|
E|-5----5----5----5----5----5----5----5----5----5----5----5----5----5----5----|

  I'm getting closer,
G|----------------------------------------------------------------------------|
D|---77---77---77---77---77---77---77---77---77---77---77---77---7-5-4-2------|
A|-----------------------------------------------------------------------5-45-|
E|-5----5----5----5----5----5----5----5----5----5----5----5----5--------------|

  closer closer
G|--------------------------------------------------------------------------------|
D|--------------------------------------------------------------------------------|
A|--5-55-55-55-5--------------5-55-55-55-5--------------5-55-55-55-5--------------|
E|---------------5-55-55-55-5--------------5-55-55-55-5--------------5-55-55-55-5-|

  ( Outro )                                               ( repeat and fade )
G|--------------------------------------------------------------------------------|
D|--------------------------------------------------------------------------------|
A|--5-55-55-55-5--------------5-55-55-55-5--------------5-55-55-55-5--------------|
E|---------------5-55-55-55-5--------------5-55-55-55-5--------------5-55-55-55-5-|
            
Submit corrections


        Getting Closer lessons Hard to play? Try these video lessons and learn fast Getting Closer lessons
        
↑ Back to top | Tablatures and chords for acoustic guitar and electric guitar, ukulele, drums are parodies/interpretations of the original songs. You may use it for private study, scholarship, research or language learning purposes only