» » »

Wings - Daytime Nighttime Suffering Bass

Artists:  A B C D E F G H I J K L M N O P Q R S T U V W X Y Z # 

Daytime Nighttime Suffering Bass

(ver. 1) Click to play this song!
Wings
 Rating:
4/5 (4 votes)

 Daytime Nighttime Suffering lessons Tabs too difficult? Try these video lessons and learn fast
 
                -------------------------------------------------------------------------------
                             Daytime Nightime Suffering - Wings 
-------------------------------------------------------------------------------

Tuning: Standard

  ( Intro )
  what does she get
G|----------------|----------------|----------------|---------|
D|----------------|----------------|----------------|---------|
A|----------------|-3--------------|-5--------------|---8---8-|
E|----------------|---------1------|----5--6--------|-6---6---|

  what does she get
G|---------------------------|------------------------|
D|---------------------------|-----3------------------|
A|-3-3-------3---3-3---------|-5-3---2-3-1--5-55------|
E|-----3-3-1---1-----3-1-1\3-|------------5------3-33-|

  where are the prizes
G|---------------------------|------------------------|
D|---------------------------|-----3------------------|
A|-3-3-------3---3-3---------|-5-3---2-3-1--5-55------|
E|-----3-3-1---1-----3-1-1\3-|------------5------3-33-|

  come on river
G|-------------------------------------|--------------------------5-|
D|-------------------------------------|-------------------------4--|
A|-3-1-----3-1-----3-1-----------------|---3---3---3-4-44-44-4h6----|
E|-----3-3-----3-3-----3-3-4-44-44-3-1-|-1---1---1------------------|

  you are the river
G|-------------------------------------|
D|-8----------------------------1------|
A|---3-3-1---1-3-1---1-3-1---1-3-3-1-3-|
E|---------3-------3-------3-----------|

  what does it take to play
G|---------------------------|------------------------|
D|---------------------------|-----3------------------|
A|-3-3-------3---3-3---------|-5-3---2-3-1--5-55------|
E|-----3-3-1---1-----3-1-1\3-|------------5------3-33-|

  no less, no more
G|---------------------------------------------------------------------|
D|---------------------------------------------------------------------|
A|-3-------3--------3--------3-----------------3--------5----------1-3-|
E|------------------------------------1--------------------------3-----|

  come on river
G|-------------------------------------|--------------------------5-|
D|-------------------------------------|-------------------------4--|
A|-3-1-----3-1-----3-1-----------------|---3---3---3-4-44-44-4h6----|
E|-----3-3-----3-3-----3-3-4-44-44-3-1-|-1---1---1------------------|


  you are the river
G|-------------------------------------|
D|-8----------------------------1------|
A|---3-3-1---1-3-1---1-3-1---1-3-3-1-3-|
E|---------3-------3-------3-----------|

  ( short break )
  oooh oooh ooohh
G|----------------|------------------------|-----------------------|
D|----------------|-----3------------------|----3------------------|
A|-------------3--|-5-3---2-3-1--5-55------|5-3---2-3-1--5-55------|
E|----------------|------------5------3-33-|-----------5------3-33-|

  ( Outro ) 
  daytime, nightime        what does she get
G|------------------------|--------------------|
D|-----3------------------|--------------------|
A|-5-3---2-3-1--5-55------|-3----------8-7-5-3-|
E|------------5------3-33-|--------------------|
            
Submit corrections


        Daytime Nighttime Suffering lessons Hard to play? Try these video lessons and learn fast Daytime Nighttime Suffering lessons
        
↑ Back to top | Tablatures and chords for acoustic guitar and electric guitar, ukulele, drums are parodies/interpretations of the original songs. You may use it for private study, scholarship, research or language learning purposes only