» » »

Wings - Band On The Run Bass

Artists:  A B C D E F G H I J K L M N O P Q R S T U V W X Y Z # 

Band On The Run Bass

(ver. 1) Click to play this song!
Wings
 Rating:
4.3/5 (25 votes)

 Band On The Run lessons Tabs too difficult? Try these video lessons and learn fast
 
                [Intro]
G|----------------------------2---|--------------------------------|
D|--------------------------------|0-------------------------------|
A|--------------------------------|--------------------------------|
E|--------------------------------|--------------------------------|
     
G|----------6-7---7---7---7---7---|0-------------------------0-----|
D|--------------------------------|----------------------------0---|
A|--------------------------------|--------------------------------|
E|--------------------------------|--------------------------------| 
        
G|--------------------------------|--------------------------------|
D|--------------------------------|0-------------------------------|
A|--------------------------------|--------------------------------|
E|3-------------------------------|--------------------------------|
       
G|------------7---7---7---7---7---|--------------------------------|
D|--------------------------------|--------------------------------|
A|--------------------------------|--------------------------------|
E|--------------------------------|3-------------------------------| 
       
G|--------------------2---2---2---|--------------------------------|
D|--------------------------------|0-----------0---0-------4-------|
A|--------------------------------|--------------------------------|
E|--------------------------------|--------------------------------|
    
G|0---------------------------2---|--------------------------------|
D|--------------------------------|0-------------------------------|
A|--------------------------------|--------------------------------|
E|--------------------------------|------------------------2-------|
   
G|--------------------------------|--------------------------------|
D|--------------------------------|0-------------------------------|
A|--------------------------------|--------------------------------|
E|3-------------------------------|--------------------------------|
 
[Verse 1]      
G|--------7---7---7---7---7---7---|0-------------------------------|
D|--------------------------------|--------------------------------|
A|--------------------------------|--------------------------------|
E|--------------------------------|--------------------------------|
     
G|----2---2---2---2---2---2---2---|--------------------------------|
D|--------------------------------|0-------------------------------|
A|--------------------------------|--------------------------------|
E|--------------------------------|--------------------------------| 
      
G|--------7---7---7---7---7---7---|--------------------------------|
D|--------------------------------|--------------------------------|
A|--------------------------------|--------------------------------|
E|--------------------------------|3-------------------------------|
       
G|--------------------------------|--------------------------------|
D|--------------------------------|0---------------0---------------|
A|------------------------0-------|--------------------------------|
E|3---------------3---------------|------------------------2-------|
    
G|--------------------------------|--------------------------------|
D|--------------------------------|0-------------------------------|
A|----------------------------0---|--------------------------------|
E|3-------------------------------|------------------------2-------|
       
G|--------------------------------|--------------------------------|
D|--------------------------------|0-------------------------------|
A|----------------------------0---|--------------------------------|
E|3-------------------------------|------------------------2-------|
 
                                  [Chorus]
G|--------------------------------|2-------2---------------2---5---|
D|--------------------------------|------------------0-4-----------|
A|--------------------------------|--------------------------------|
E|3-----------3---3---------------|--------------------------------|
    
G|7-------7-----------------------|--------------------------------|
D|--------------------------------|--------------------------------|
A|--------------------------------|0-------0---------------0---3---|
E|------------------------1---2---|--------------------------------|
     
G|--------------------------------|--------------------------------|
D|0-------0-----------------------|--------------------------------|
A|--------------------------------|0-------0-------0-------0-------|
E|--------------------1---1---3---|--------------3-------------3---|
       
G|--------------------------------|--------------------------------|
D|--------------------------------|0---0---------------------------|
A|0---0-------------------0---3---|--------------------------------|
E|--------------------------------|------------------------1---3---|
    
G|--------------------------------|--------------------------------|
D|--------------------------------|0---0---------------0-----------|
A|0---0-------------------0---3---|--------------------------------|
E|--------------------------------|------------------------1---3---|
    
G|--------------------------------|--------------------------------|
D|--------------------------------|--------------------------------|
A|0-------0-------0-------0-------|0-------0-------0-------0-------|
E|--------------3---------------3-|--------------3-----------------| 
        
G|--------------------------------|--------------------------------|
D|0-------0-------0---0-----------|--------------------------------|
A|--------------3-----------------|0-------0-------0-------0---3---|
E|------------------------0---3---|--------------3-----------------|
         
G|----------------------------2---|--------------------------------|
D|0-------0-------0---0---3-------|--------------------------------|
A|--------------3-----------------|0-------0-------0-------0---3---|
E|--------------------------------|--------------3-----------------| 
      
G|--------------------------------|--------------------------------|
D|--------------------------------|----------------0-------0-------|
A|0-------0-------0---------------|--------------------------------|
E|--------------3---------0---3---|--------------------------------| 
        
G|--------------------------------|--------------------------------|
D|------------------------0-------|0-------------------------------|
A|3-------------------------------|--------3---------------------0-|
E|--------------------------------|----------------------------3---| 
      
G|--------------------------------|--------------------------------|
D|--------------------------------|--------------------------------|
A|--3-----------------------------|----------------3---------------|
E|--------------------------------|--------------------------------|
 
                                  [Verse 2]    
G|--------------------------------|--------------------------------|
D|--------------------------------|--------------------------------|
A|--------------------------------|3---3---------------------------|
E|--------------------------------|------------------------4---3---|
    
G|--------------------------------|--------------------------------|
D|--------------------------------|--------------------------------|
A|--------------------------------|--------------------------------|
E|1---1-----------------------0---|1---1---1---------------1---3---|
   
G|--------------------------------|--------------------------------|
D|--------------------------------|--------------------------------|
A|3---3---3-----------------------|3---3---3-----------------------|
E|------------------------4---1---|------------------------4---3---|
     
G|--------------------------------|--------------------------------|
D|--------------------------------|--------------------------------|
A|--------------------------------|--------------------------------|
E|1---1---1-------------------0---|1---1---1-------------------1---|
 
                                  [Chorus]      
G|--------------------------------|--------------------------------|
D|--------------------------------|--------------------------------|
A|--------------------------------|--------------------------------|
E|0---0---0---------------0---0---|3---3-----------3---3-----------|
     
G|--------------------------------|--------------------------------|
D|--------------------------------|2-------2-----------------------|
A|3---3-----------3---3-----------|----------------3-------2---0---|
E|--------------------------------|--------------------------------| 
     
G|--------------------------------|--------------------------------|
D|--------------------------------|--------------------------------|
A|----0---0-----------0-----------|--------------------------------|
E|------------------------3-------|1---------------1---1---3-------| 
       
G|--------------------------------|--------------------------------|
D|--------------------------------|--------------------------------|
A|3---------------3---3---0-------|--------------------------------|
E|----------------------------3---|1-------1---------------1-------| 
       
G|--------------------------------|--------------------------------|
D|--------------------------------|--------------------------------|
A|--------------------------------|3-------------------3-------0---|
E|--------------------------------|------------------------3-------|
        
G|--------------------------------|--------------------------------|
D|--------------------------------|--------------------------------|
A|3-------------------3-------0---|3-------------------3-------0---|
E|--------3---------------3-------|--------3---------------3-------|
       
G|--------------------------------|--------------------------------|
D|--------------------------------|--------------------------------|
A|3-------------------3-------0---|3-------------------3-------0---|
E|--------3---------------3-------|--------3---------------3-------| 
      
G|--------------------------------|--------------------------------|
D|--------------------------------|--------------------------------|
A|3-------------------3-------0---|3-------------------3-------0---|
E|--------3---------------3-------|--------3---------------3-------|
 
                                  [Verse 3]     
G|--------------------------------|--------------------------------|
D|--------------------------------|--------------------------------|
A|3-----------0---3---3---3---0---|3-------------------3---0-------|
E|--------3-----------------------|----------------------------3---|
       
G|--------------------------------|--------------------------------|
D|--------------------------------|--------------------------------|
A|--------------------------------|--------------------------------|
E|1---------------------------0---|1---1---1-----------0---1---3---| 
       
G|--------------------------------|--------------------------------|
D|--------------------------------|--------------------------------|
A|3---3---3-------------------0---|3-------3-----------0-----------|
E|--------------------3---3-------|------------------------4---3---|
 
 |       |       |       |        |       |       |       |        
G|--------------------------------|--------------------------------|
D|--------------------------------|--------------------------------|
A|--------------------------------|--------------------------------|
E|1-------1-------------------0---|1---1---1-----------------------|
  
                                  [Chorus]       
G|--------------------------------|--------------------------------|
D|--------------------------------|--------------------------------|
A|--------------------------------|--------------------------------|
E|0-------0-----------------------|3-----------3---3---3---3-------|
        
G|--------------------------------|--------------------------------|
D|--------------------------------|--------------------------------|
A|3-------------------3-----------|------------------------2---0---|
E|------------------------3-------|0-------------------3-----------|
      
G|--------------------------------|--------------------------------|
D|--------------------------------|--------------------------------|
A|------------0---0---------------|--------------------------------|
E|------------------------3-------|1---------------1---1---3-------|
        
G|--------------------------------|--------------------------------|
D|--------------------------------|--------------------------------|
A|3---------------3---3---0-------|--------------------------------|
E|----------------------------3---|1-----------1-----------1-------|
         
G|--------------------------------|------------------------0-------|
D|--------------------------------|--------------------------------|
A|--------------------------------|3-------------------3-------0---|
E|--------------------------------|--------------------------------| 
        
G|--------------------------------|--------------------------------|
D|--------------------------------|--------------------------------|
A|3-------------------3-------0---|3-------------------3-------0---|
E|------------------------3-------|------------------------3-------|
   
                                  [Break]      
G|--------------------------------|------------0-------------------|
D|----------------------------0---|2-------------------------------|
A|3-------------------3-----------|------------------------3-------|
E|------------------------3-------|--------------------------------| 
        
G|--------------------------------|--------------------------------|
D|----------------2---------------|--------------------------------|
A|----------------------------3---|--------0-----------------------|
E|--------------------------------|--------------------------------|
        
G|--------------------------------|--------------------------------|
D|--------------------------------|--------------------------------|
A|--------------------------------|3-------------------3-----------|
E|1-------1-------1-------1-------|------------------------3---2---| 
     
G|--------------------------------|--------------------------------|
D|--------------------------------|--------------------------------|
A|--------------------------------|--------------------------------|
E|1-----------1-----------1-------|--------------------------------|
 
[Chorus]      
G|--------------------------------|--------------------------------|
D|--------------------------------|--------------------------------|
A|--------------------3-------0---|3-------------------3-------0---|
E|--------3---------------3-------|--------3---------------3-------|
        
G|--------------------------------|--------------------------------|
D|--------------------------------|--------------------------------|
A|3-------------------3-------0---|3---3---------------3-------0---|
E|--------3---------------3-------|--------3---------------3-------|
        
G|--------------------------------|--------------------------------|
D|--------------------------------|--------------------------------|
A|3-------------------3-------0---|3---3---------------3-------0---|
E|--------3---------------3-------|--------3---------------3-------| 
       
G|--------------------------------|--------------------------------|
D|--------------------------------|--------------------------------|
A|3-------------------3-------0---|3---3---------------3-------0---|
E|--------3---------------3-------|--------3---------------3-------|
 
[Verse 4]       
G|--------------------------------|--------------------------------|
D|--------------------------------|--------------------------------|
A|3-----------------------3-------|--------------------------------|
E|--------3-------------------3---|1---1---1-----------------------|
        
G|--------------------------------|--------------------------------|
D|--------------------------------|--------------------------------|
A|--------------------------------|----3---3-----------3---3-------|
E|0---1-------1-------1---1---3---|----------------------------3---| 
      
G|--------------------------------|--------------------------------|
D|--------------------------------|--------------------------------|
A|0---3---3---3-----------3-------|--------------------------------|
E|----------------------------3---|1---1-------1-------------------| 
     
G|--------------------------------|--------------------------------|
D|--------------------------------|--------------------------------|
A|--------------------------------|--------------------------------|
E|0---1---1---1-----------0---1---|3---0-------0-----------1---2---|
 
[Chorus]       
G|--------------------------------|--------------------------------|
D|--------------------------------|--------------------------------|
A|--------------------------------|3---3---3---------------3---3---|
E|3-------3-------3---3---3-------|--------------------------------|
       
G|--------------------------------|--------------------------------|
D|--------2---2---2---2-----------|--------------------------------|
A|0---0-------------------3---3---|2---2---0---0---0---0---0---0---|
E|--------------------------------|--------------------------------| 
      
G|--------------------------------|--------------------------------|
D|--------------------------------|3-------------------------------|
A|--------------------------------|--------------------------------|
E|3-------1---1---1---------------|------------------------3-------|
     
G|--------------------------------|--------------------------------|
D|--------------------------------|--------------------------------|
A|3-------------------------------|--------------------------------|
E|--------------------------------|--------------------------------|
       
G|------------0-----------2-------|--------------------------------|
D|3-------------------------------|--------------------------------|
A|--------------------------------|--------------------------------|
E|--------------------------------|--------------------------------|
 
[Outro]      
G|--------------------------------|--------------------------------|
D|--------------------------------|--------------------------------|
A|3-------------------3-----------|3---3---------------3-----------|
E|------------------------3-------|--------3---------------3-------|
     
G|--------------------------------|--------------------------------|
D|--------------------------------|--------------------------------|
A|3-------------------3-----------|3---3-------------------0---2---|
E|--------3---------------3-------|--------3---1---0---1-----------|
       
G|--------------------------------|--------------------------------|
D|--------------------------------|--------------------------------|
A|3---3---------------3-------0---|3-------------------3-------0---|
E|--------3---------------3-------|--------3---------------3-------|
    
G|--------------------------------|--------------------------------|
D|--------------------------------|--------------------------------|
A|3---3---------------3-------0---|3---3-------------------0---2---|
E|--------3---------------3-------|--------3---2---1---3-----------|
     
G|------------0-------------------|
D|2-------------------------------|
A|------------------------3-------|
E|--------------------------------|            
Submit corrections


        Band On The Run lessons Hard to play? Try these video lessons and learn fast Band On The Run lessons
        
↑ Back to top | Tablatures and chords for acoustic guitar and electric guitar, ukulele, drums are parodies/interpretations of the original songs. You may use it for private study, scholarship, research or language learning purposes only