» » »

Wilson Jackie - Guilty Youre Already Dead Tabs

Artists:  A B C D E F G H I J K L M N O P Q R S T U V W X Y Z # 

Guilty Youre Already Dead Tabs

(ver. 1) Click to play this song!
Wilson Jackie
 Rating:
2.5/5 (26 votes)

 Guilty Youre Already Dead  lessons Tabs too difficult? Try these video lessons and learn fast
 
                Riff 1
D#|---------------------------------------------------|
A#|---------------------------------------------------|
F#|---------------------------------------------------|
C#|---------------------------------------------------|
G#|-12-----------10-----------8-----------7-----------|
C#|----7--7-7--7----7--7-7--7---7--7-7--7---7--7-7--7-|

D#|---------------------------------------------|
A#|---------------------------------------------|
F#|---------------------------------------------|
C#|---------------------------------------5-7-5-|
G#|-12-----------10-----------8-----------5-7-5-|
C#|----7--7-7--7----7--7-7--7---7--7-7--7-5-7-5-|

D#|---------------------------------------------------|
A#|---------------------------------------------------|
F#|---------------------------------------------------|
C#|---------------------------------------------------|
G#|-12-----------10-----------8-----------7-----------|
C#|----7--7-7--7----7--7-7--7---7--7-7--7---7--7-7--7-|

D#|----------------------------------------------|
A#|----------------------------------------------|
F#|---------------------------------------5-7-5\-|
C#|---------------------------------------5-7-5\-|
G#|-12-----------10-----------8------------------|
C#|----7--7-7--7----7--7-7--7---7--7-7--7--------|

Fill 1
D#|---------------------------------------------|
A#|---------------------------------------------|
F#|-9--9--9--9--9--9--9--9--9--9--9--9--9--9--9-|
C#|-7--7--7--7--7--7--7--7--7--7--7--7--7--7--7-|
G#|-0--0--0--0--0--0--0--0--0--0--0--0--0--0--0-|
C#|---------------------------------------------|

Fill 1 note: Immediately mute the chords so they don't ring out.

Riff 2   "Yeah I got your number..."
D#|-------------------------------------------|
A#|-------------------------------------------|
F#|-7--9-9-7-9\------12--7--9-9-7-9\------5-7-|
C#|-7--7-7-7-7\------10--7--7-7-7-7\------5-5-|
G#|-------------------------------------------|
C#|-------------------------------------------|

D#|-------------------------------------------------------|
A#|-------------------------------------------------------|
F#|-7--9-9-7-9\------12--7--9-9-7-9\--2-2-2-2-2-2---------|
C#|-7--7-7-7-7\------10--7--7-7-7-7\--2-2-2-2-2-2-7-5-0-2-|
G#|-----------------------------------0-0-0-0-0-0-7-5-0-2-|
C#|-----------------------------------------------7-5-0-2-|
                                      * * * * * *

Riff 3   "Yeah you thought you'd take it to your grave..."
D#|---------------------------|
A#|----------------3--3-3-3---|
F#|----5--5-5------2--2-2-2---|
C#|-3--3--3-3---0--0--0-0-0-0-| x2
G#|-3--3--3-3-x-0--0--0-0-0-0-|
C#|-3--3--3-3-x-0--0--0-0-0-0-|

D#|------------------------------|
A#|----------------3-3-----------|
F#|----5--5-5------2-2-----------|
C#|-3--3--3-3---0--0-0-2-2-2-2-2-|
G#|-3--3--3-3-x-0--0-0-2-2-2-2-2-|
C#|-3--3--3-3-x-0--0-0-2-2-2-2-2-|

Riff 4   "So say it, say it, you know what you did..."
D#|---------------------------------------------------|
A#|---------------------------------------------------|
F#|---------------------------------------------------|
C#|---------------------------------------------------|
G#|-12-----------10-----------8-----------7-----------|
C#|----7--7-7--7----7--7-7--7---7--7-7--7---7--7-7--7-|

D#|--------------------------------------------------------------------------|
A#|--------------------------------------------------------------------------|
F#|--------------------------------------------------------------------------|
C#|---------------------------------------5-7-5------7------5------3------2/-|
G#|-12-----------10-----------8-----------5-7-5------------------------------|
C#|----7--7-7--7----7--7-7--7---7--7-7--7-5-7-5--3-3----3-3----0-0----2-2----|

1st chorus ending
D#|--------------------------------------------------------------------------------|
A#|--------------------------------------------------------------------------------|
F#|--------------------------------------------------------------------------------|
C#|--------------------------------------------------------7------5------3------2/-|
G#|-12-----------10-----------8-----------7----------------------------------------|
C#|----7--7-7--7----7--7-7--7---7--7-7--7---7--7-7--7-3-3-----3-3----0-0----2-2----|

Play Fill 1 x1
Play Riff 2 x1   "Dig your hole a little deeper..."

Riff 2 ending fill   "It's the end of the line..."
D#|-------------------------3-----3--3-3------3--3------3--3---------|
A#|-------------------------3-----3--3-3------3--3------3--3---------|
F#|-2-2-2-2-2-2-2-2-2-2-2---0-2---0--0-0-2--2-0--0-2--2-0--0-2-2-2-2-|
C#|-2-2-2-2-2-2-2-2-2-2-2-----2----------2--2------2--2------2-2-2-2-|
G#|-0-0-0-0-0-0-0-0-0-0-0-----0----------0--0------0--0------0-0-0-0-|
C#|------------------------------------------------------------------|
    * * * * * * * * * *                                      * * * *

Play Riff 3 x1   "Yeah, you thought you'd take it to your grave..."
Play Riff 4 x1   "So say it, say it, you know what you did..."

2nd chorus ending
D#|---------------------------------------------------|
A#|---------------------------------------------------|
F#|---------------------------------------------------|
C#|---------------------------------------------------|
G#|-12-----------10-----------8-----------7-----------|
C#|----7--7-7--7----7--7-7--7---7--7-7--7---7--7-7--7-|

D#|---------------------------------------------------------------------------------------|
A#|---------------------------------------------------------------------------------------|
F#|---------------------------------------5-7-5---------------------------------------9-9-|
C#|---------------------------------------5-7-5-----7------5------3------2/-7-7--7-7--7-7-|
G#|-12-----------10-----------8---------------------------------------------7-7--7-7--7-7-|
C#|----7--7-7--7----7--7-7--7---7--7-7--7-------3-3----3-3----0-0----2-2----7-7--7-7--7-7-|

Riff 5
D#|------------------------------------------------|
A#|-5------------------------5---------------------|
F#|-7-b9~----b9-b9-b9r7~-----7-b9------------------|
C#|------------------------------------------------|
G#|----------------------------------//pickslide//-|
C#|----------------------------------//---------//-|

Fill 2   "You're already dead!!"
D#|-----------------------------------------------------------------|
A#|-----------------------------------------------------------------|
F#|-2-2-2-4-4-4-5-5-5-----------------------------------------------|
C#|-2-2-2-4-4-4-5-5-5-5-5-5-5-7-7-7-7-7-7-7-7-7-7-7-7-7-7-7-7-7-7-7-|
G#|-0-0-0-2-2-2-3-3-3-5-5-5-5-7-7-7-7-7-7-7-7-7-7-7-7-7-7-7-7-7-7-7-|
C#|-------------------5-5-5-5-7-7-7-7-7-7-7-7-7-7-7-7-7-7-7-7-7-7-7-|
                                    * * * * * * * * * * * * * * * *

Play Riff 3 x1   "Yeah, you thought you'd take it to the grave..."
Play Riff 4 x1   "So say it, say it, you know what you did..."

3rd chorus ending
D#|---------------------------------------------------|
A#|---------------------------------------------------|
F#|---------------------------------------------------|
C#|---------------------------------------------------|
G#|-12-----------10-----------8-----------7-----------|
C#|----7--7-7--7----7--7-7--7---7--7-7--7---7--7-7--7-|

D#|-------------------------------------------------------------------------|
A#|-------------------------------------------------------------------------|
F#|---------------------------------------5-7-5-----------------------------|
C#|---------------------------------------5-7-5-----7------5------3------2/-|
G#|-12-----------10-----------8---------------------------------------------|
C#|----7--7-7--7----7--7-7--7---7--7-7--7-------3-3----3-3----0-0----2-2----|

D#|---------------------------------------------------|
A#|---------------------------------------------------|
F#|---------------------------------------------------|
C#|---------------------------------------------------|
G#|-12-----------10-----------8-----------7-----------|
C#|----7--7-7--7----7--7-7--7---7--7-7--7---7--7-7--7-|

D#|---------------------------------------------------------------------------|
A#|---------------------------------------------------------------------------|
F#|---------------------------------------------------------------------------|
C#|---------------------------------------5-7-5-----7------5--0-0-0-0-2-2-2-2-|
G#|-12-----------10-----------8-----------5-7-5---------------0-0-0-0-2-2-2-2-|
C#|----7--7-7--7----7--7-7--7---7--7-7--7-5-7-5-3-3----3-3----0-0-0-0-2-2-2-2-|
                                                              * * * *            
Submit corrections


        Guilty Youre Already Dead  lessons Hard to play? Try these video lessons and learn fast Guilty Youre Already Dead  lessons
        
↑ Back to top | Tablatures and chords for acoustic guitar and electric guitar, ukulele, drums are parodies/interpretations of the original songs. You may use it for private study, scholarship, research or language learning purposes only