Home » W » Willie Nelson »

Willie Nelson - On The Road Again Tabs

Artists:  A B C D E F G H I J K L M N O P Q R S T U V W X Y Z # 

On The Road Again Tabs

(ver. 2) Click to play this song!
Willie Nelson
 Rating:
3.1/5 (27 votes)
                E |--------------------------------------------------------------------|
B |----8H9--9-----/9-8-9-B9-9-9H10P9----/9-9-9----/9-8-9-B9-9-9H10P9---|
G |----------------------------------9-------------------------------9-|
D |--9-----------------------------------------------------------------|
A |--------------------------------------------------------------------|
e |--------------------------------------------------------------------|

E |---------------------------------------------|
B |/9-8-7-6--7--8-9-10---10-10-10-9---7-7-------|
G |----------------------------------------8-9--|
D |---------------------------------------------|
A |---------------------------------------------|
e |---------------------------------------------|

E |--------------------------------------------------------------------|
B |----8H9--9-----/9-8-9-B9-9-9H10P9----/9-9-9----/9-8-9-B9-9-9H10P9---|
G |----------------------------------9-------------------------------9-|
D |--9-----------------------------------------------------------------|
A |--------------------------------------------------------------------|
e |--------------------------------------------------------------------|

E |---------------------------------------------|
B |/9-8-7-6--7--8-9-10---10-10-10-9---7-7-------|
G |----------------------------------------8-9--|
D |---------------------------------------------|
A |---------------------------------------------|
e |---------------------------------------------|            
Submit corrections

↑ Back to top | Tablatures and chords for acoustic guitar and electric guitar, ukulele, drums are parodies/interpretations of the original songs. You may use it for private study, scholarship, research or language learning purposes only