» » »

William Cummings - Hark The Herald Angels Sing Tabs

Artists:  A B C D E F G H I J K L M N O P Q R S T U V W X Y Z # 

Hark The Herald Angels Sing Tabs

(ver. 1) Click to play this song!
William Cummings
 Rating:
4.4/5 (14 votes)

 Hark The Herald Angels Sing lessons Tabs too difficult? Try these video lessons and learn fast
 
                Tuning: standard
      
      |    |    |'   |\        |    |    |    |         |    |    |'   |\      |    |    |''
e|------------------------|---------5----5----3----|----8----8----8----6--|----5----3----5-----------|
B|---------6----6----5----|----6----4----4----3----|----------------------|----3----2----5-----------|
G|----5---------6---------|--------------4----3----|----------------------|----3----3----5-----------|
D|------------------------|----7----4----3----2----|----------------------|---------2----3-----------|
A|------------------------|------------------------|----------------------|----3---------------------|
E|------------------------|------------------------|----5---------6-------|--------------------------|


e|------------------------|---------5----5----3----|----8-------------------|------------------------|
B|----1----6----6----5----|----6----6----6----3----|----8----8----8----5----|----5----3----1---------|
G|----2----3----5----3----|----5----5----7----4----|---------7----7----5----|----4----1----2---------|
D|----2----3----5----5----|----7----7--------------|---------5----5----3----|----3----3----2---------|
A|-------------------3----|----5-------------------|------------------------|--------------3---------|
E|----1----3----5---------|---------8----7----3--0-|----8----7----6----5----|----4----3--------------|


e|----8----8----8----------|-----------------------|----8----8----8---------|------------------------|
B|--------------8----------|----11---10---10---8---|--------------8---------|---11---10---10---8-----|
G|--------------10---10----|----10--------9--------|--------------10---10---|---10---10---9----------|
D|--------------11---------|----8---------8--------|--------------11--------|---8----8----8----------|
A|-------------------------|-----------------------|------------------------|------------------------|
E|----8--------------------|----8---------8--------|----8-------------------|---8----8----8----------|


e|------------------------|----10---10---10---8----|----6----5----6---------|----3----5--6--8--------|
B|----11---10---10---8----|----10--------10---8----|----6----3----3---------|----3----------5-----6--|
G|----10---10---9---------|----10--------10---9----|----7----3----3---------|----3----------5-----5--|
D|----8----8----8---------|----8---------8----7----|----5----4----3---------|----2----------------7--|
A|------------------------|------------------------|------------------------|---------------------5--|
E|----8----8----8---------|------------------------|------------------------|---------------5--------|


e|---------3----5---------|----10-----10---10---8--|----6----5----6---------|---------5--6--8--------|
B|----6----3----5---------|----10----------10---8--|----6----4----3---------|----8----------5-----6--|
G|----3----3----5---------|----10----------10---9--|----7----5----3---------|----7----------5-----5--|
D|----3---------3---------|----8-----------8----7--|----5----4--------------|----8----------------4--|
A|---------3--------------|------------------------|------------------------|------------------------|
E|----3-------------------|------------------------|--------------3---------|----0----------------4--|


e|---------5--6--8--------|---------3--------------|----1-------------------|----3-------------------|
B|----8----------5-----6--|----6----2--------------|----2--------------2----|----3--------------3----|
G|----7----------5-----5--|----3----3--------------|----1---------1---------|----2---------2---------|
D|----8----------------4--|----3----2--------------|---------1--------------|----2----2--------------|
A|------------------------|---------3--------------|------------------------|------------------------|
E|----0----------5-----4--|----3-------------------|----2-------------------|----1-------------------|
            
Submit corrections


        Hark The Herald Angels Sing lessons Hard to play? Try these video lessons and learn fast Hark The Herald Angels Sing lessons
        
↑ Back to top | Tablatures and chords for acoustic guitar and electric guitar, ukulele, drums are parodies/interpretations of the original songs. You may use it for private study, scholarship, research or language learning purposes only