Home » W » Widespread Panic »

Widespread Panic - Driving Song Tabs

Artists:  A B C D E F G H I J K L M N O P Q R S T U V W X Y Z # 

Driving Song Tabs

(ver. 2) Click to play this song!
Widespread Panic
[Intro]

E|---7---7-5-3-|--2^3^2----|-----------|
B|-----8-8-7-3-|--3--------|--0--2-----|
G|---------7-4-|--2--------|--0--2-----|
D|0------------|0----------|--0--2-----|
A|-------------|-----------|-----------|
E|-------------|-----------|-----------|

E|-7---8-10-7----|------------10-----------|
B|---8-8--8---8--|7^8--10-7--8-------------|
G|---------------|-7-------7-------9-------|
D|0--------------|0-------0----------------|
A|---------------|-------------------------|

E|---------12-|
B|-------12---|
G|-----12-----|
D|---12-------|
A|------------|
E|------------|


[Verse 1]

Em                         G
The leaves seen through my window pane
  D                 A               Em           G  D  A
Remind me that it's time to move my life again
Em              G
November sun is felt by none
  D                A
A chilly breeze has blown my thoughts
  Em               G  D  A
To what's to come
         Em                G
A cup of warm coffee, some vitamin C
  D                   A
A bowl for the cat, a bowl for the dog,
  Em            G  D  A
A bowl for me
          Em                G
Choose my bluest tape and unlock my car
   D                  A
An honest tune with a lingering lead
    Em            G     D  A
has taken me this far


[Theme 2]

C          G          D

(increase tempo-swing time)

G             Am

G             Em

G             Am

Bm            Dm

G             Am

G             Em

G             Am

Bm            Dm (x4)


E|---7---7-5-3-|--2^3^2----|-----------|
B|-----8-8-7-3-|--3--------|--0--2-----|
G|---------7-4-|--2--------|--0--2-----|
D|0------------|0----------|--0--2-----|
A|-------------|-----------|-----------|
E|-------------|-----------|-----------|

E|-7---8-10-7----|------------10-----------|
B|---8-8--8---8--|7^8--10-7--8-------------|
G|---------------|-7-------7-------9-------|
D|0--------------|0-------0----------------|
A|---------------|-------------------------|

Em G D A Em

E|---7---7-5-3-|--2^3^2----|-----------|
B|-----8-8-7-3-|--3--------|--0--2-----|
G|---------7-4-|--2--------|--0--2-----|
D|0------------|0----------|--0--2-----|
A|-------------|-----------|-----------|
E|-------------|-----------|-----------|

E|-7---8-10-7----|------------10-----------|
B|---8-8--8---8--|7^8--10-7--8-------------|
G|---------------|-7-------7-------9-------|
D|0--------------|0-------0----------------|
A|---------------|-------------------------|

E|---------12-|
B|-------12---|
G|-----12-----|
D|---12-------|
A|------------|
E|------------|


[Verse 2]

Em                              G
On the edge of the porch in the warm evening night
D                         A             Em           G D A
Throwing the bone for the dog I see two passing lights
Em                       G
Well, I wonder where that driver's bound
         D                   A
Is there someone, somewhere, someway out there
      Em            G D A
That I've not found
  Em                   G
A touch of smoke ain't what it seems
D                     A                      Em G D A
Dust and sunshine can also make my eyes look mean
              Em                         G
But there's a brown cat sleeping through this day's show
D               A                   Em   G D A    
Toppin' off the woodpile, breathing slow


[Theme 2]

slower tempo

C          G          D

G             Am

G             Em

G             Am

Bm            Dm

G             Am

G             Am

G             Am

Bm            Dm (x4)
 
E|---7--7-----8------10------7----|
B|---8----8-----8-------8----8----|
G|---7------7-----7-------7--7----|
D|---0-----------------------0----|
A|--------------------------------|
E|--------------------------------|            
Submit corrections

↑ Back to top | Tablatures and chords for acoustic guitar and electric guitar, ukulele, drums are parodies/interpretations of the original songs. You may use it for private study, scholarship, research or language learning purposes only