Home » W » Whitney Houston »

Whitney Houston - I Wanna Dance With Somebody Bass

Artists:  A B C D E F G H I J K L M N O P Q R S T U V W X Y Z # 

I Wanna Dance With Somebody Bass

(ver. 1) Click to play this song!
Whitney Houston
Intro

 |------------------|-----------------|
o|-4--4-1-4---------|-4~~---4---------|o
o|------------------|-----------------|o
 |------------------|-----------------|
   E. S E E H         Q.    E H
                                                              Instruments enter

|------------------|-----------------|-----------------|-----------------|
|-4--4-1-4---------|-4~~---4---------|-4--4-1-4--------|-4~~---4-4---3---|
|------------------|-----------------|-----------------|-----------------|
|------------------|-----------------|-----------------|-----------------|
  E. S E E H         Q.    E H         E. S E E H        Q.    E Q   Q

|------------------|-----------------|-----------------|-----------------|
|------------------|-----------------|-----------------|-----------------|
|-6--6-4-6---------|-6--6--6---------|-2-----2-----2-2-|-----1---2---4---|
|------------------|---------4---6---|-----------------|-4---------------|
  E. S E E H         E. E. E Q   Q     Q.    E Q.  S S   Q   Q   Q   Q
                                                    
|------------------|-----------------|
|-4--4-1-4---------|-4~~---4---------|
|------------------|-----------------|
|------------------|-----------------|
  E. S E E H         Q.    E H

Verse

|------------------|-----------------|------------------|-----------------|
|------------------|-----------------|------------------|-----------------|
|-4--4-2-4-------4-|-4--4--4-----4-4-|-6--6-4-6-------6-|-6--6--6---------|
|------------------|-----------------|------------------|---------4---6---|
  E. S E E Q.    E   E. E. E Q.  S S   E. S E E Q.    E   E. E. E Q   Q

"The clock strikes..."

|------------------|-----------------|------------------|-----------------|
|------------------|-----------------|------------------|-----------------|
|-4--4-2-4-------4-|-4--4--4-----4-4-|-6--6-4-6-------6-|-6--6--6---------|
|------------------|-----------------|------------------|---------4---6---|
  E. S E E Q.    E   E. E. E Q.  S S   E. S E E Q.    E   E. E. E Q   Q

Pre-Chorus

|------------------|-----------------|------------------|-----------------|
|------------------|-----------------|------------------|-----------------|
|-2----2-2-1-2---4-|---4---4-4---2---|------------------|-----------------|
|------------------|-----------------|-4----4-4-2-4---4-|---------7---6---|
  E Q  S S E E E E   E E E E Q   Q     E Q  S S E E E E   H       Q   Q

"I've done alright..."

|------------------|-----------------|------------------|
|-----------1------|-----------------|------------------|
|-------1----------|-----------------|-2-1-2-4----------|
|-4----------------|-----------------|------------------|
  Q.    Q   Q.       H                 E E E E

"When the night falls..."

Chorus

|------------------|-----------------|-----------------|-----------------|
|-4--4-1-4---------|-4~~---4---------|-4--4-1-4--------|-4~~---4-4---3---|
|------------------|-----------------|-----------------|-----------------|
|------------------|-----------------|-----------------|-----------------|
  E. S E E H         Q.    E H         E. S E E H        Q.    E Q   Q

|------------------|-----------------|-----------------|-----------------|
|------------------|-----------------|-----------------|-----------------|
|-6--6-4-6---------|-6--6--6---------|-2-----2-----2-2-|-----1---2---4---|
|------------------|---------4---6---|-----------------|-4---------------|
  E. S E E H         E. E. E Q   Q     Q.    E Q.  S S   Q   Q   Q   Q
                                                    
|------------------|-----------------|
|-4--4-1-4---------|-4~~---4---------|
|------------------|-----------------|
|------------------|-----------------|
  E. S E E H         Q.    E H

Repeat Verse, Pre-Chorus, Chorus

Bridge

|------------------|-----------------|-----------------|-----------------|
|------------------|-----------------|-----------------|-----------------|
|-6--6--6\---------|-6--6--6\--------|-4--4-2-4----4-4-|-4--4--4---------|
|------------------|-----------------|-----------------|---------4---6---|
  E. E. E  H         E. E. E  H        E. S E E Q. S S   E. E. E Q   Q  

|------------------|-----------------|-----------------|-----------------|
|------------------|-----------------|-----------------|-----------------|
|-6--6--6\---------|-6--6--6\--------|-4--4-2-4----4-4-|-4--4--4---------|
|------------------|-----------------|-----------------|---------4---6---|
  E. E. E  H         E. E. E  H        E. S E E Q. S S   E. E. E Q   Q  

Repeat Pre-Chorus

Chorus (Key Change to G#)

|------------------|-----------------|-----------------|-----------------|
|-6--6-3-6---------|-6~~---6---------|-6--6-3-6--------|-6~~---6-6---5---|
|------------------|-----------------|-----------------|-----------------|
|------------------|-----------------|-----------------|-----------------|
  E. S E E H         Q.    E H         E. S E E H        Q.    E Q   Q

|------------------|-----------------|-----------------|-----------------|
|------------------|-----------------|-----------------|-----------------|
|-8--8-6-8---------|-8--8--8---------|-4-----4-----4-4-|-----3---4---6---|
|------------------|---------6---8---|-----------------|-6---------------|
  E. S E E H         E. E. E Q   Q     Q.    E Q.  S S   Q   Q   Q   Q
                                                    
|------------------|-----------------|
|-6--6-3-6---------|-6~~---6---------|
|------------------|-----------------|
|------------------|-----------------|
  E. S E E H         Q.    E H

            
Submit corrections

↑ Back to top | Tablatures and chords for acoustic guitar and electric guitar, ukulele, drums are parodies/interpretations of the original songs. You may use it for private study, scholarship, research or language learning purposes only