Home » W » Whitley »

Whitley - Lost In Time Tabs

Artists:  A B C D E F G H I J K L M N O P Q R S T U V W X Y Z # 

Lost In Time Tabs

(ver. 1) Click to play this song!
Whitley
this is the same as my first tab with corrections:)
WHITLEY IS AWESOME!
Standard Tuning: EADGBE
Played Very Fast
   Intro                            Verse
   G                             x2                               x6 
E-|--------------------------------|--------------------------------|
B-|--------------------------------|------3---1---0-----------------|
G-|--0---0---0---0---0---0---0---0-|--0---------------0---0---0---0-|
D-|--------------------------------|--------------------------------|
A-|--------------------------------|--------------------------------|
E-|3---3---3---3---3---3---3---3---|3---3---3---3---3---3---3---3---|
                                    We're Coming Out...
   C                                G
E-|--------------------------------|--------------------------------|
B-|-------3---1---0---1------------|--------------------------------|
G-|--0---0---0---0---0---0---0---0-|--0---0---0---0---0---0---0---0-|
D-|--------------------------------|--------------------------------|
A-|3---3---3---3---3---3---3---3---|--------------------------------|
E-|--------------------------------|3---3---3---3---3---3---3---3---|
 And suddenly its all about to change                      And all i 
  Chorus
   A                                C
E-|--------------------------------|--------------------------------|
B-|--------------------------------|--------------------------------|
G-|--2---2---2---2---2---2---2---2-|--0---0---0---0---0---0---0---0-|
D-|0---0---0---0---0---0---0---0---|--------------------------------|
A-|--------------------------------|3---3---3---3---3---3---3---3---|
E-|--------------------------------|--------------------------------|
   could have been        And all i would have been      Was lost in 

   G                                                    Repeat Chorus
E-|--------------------------------|--------------------------------|
B-|--------------------------------|--------------------------------|
G-|--0---0---0---0---0---0---0---0-|--0---0---0---0---0---0---0---0-|
D-|--------------------------------|--------------------------------|
A-|--------------------------------|--------------------------------|
E-|3---3---3---3---3---3---3---3---|3---3---3---3---3---3---3---3---|
   time                                                    And all i 

Repeat from Verse

Then chorus played twice again with no lyrics.

Thats better!!
            
Submit corrections

↑ Back to top | Tablatures and chords for acoustic guitar and electric guitar, ukulele, drums are parodies/interpretations of the original songs. You may use it for private study, scholarship, research or language learning purposes only