Home » W » White Zombie »

White Zombie - Super Charger Heaven Tabs

Artists:  A B C D E F G H I J K L M N O P Q R S T U V W X Y Z # 

Super Charger Heaven Tabs

(ver. 2) Click to play this song!
White Zombie
 Rating:
4/5 (4 votes)
                Super Charger Heaven  (aka Devil Man) By White Zombie
dropped D plus half step down tuning
b-full bend | P.M.- palm mutt | x- mutt | p- pull off | h- hammer on

INTRO:
3|-5-5-4--5-5-4--5-5-4--5-5-4--5-5-5-4|
4|-x-x-x--x-x-x--x-x-x--x-x-x--x-x-x-x|
5|-3-3-2--3-3-2--3-3-2--3-3-2--3-3-3-2| x2
6|---------------------------------------|

CHORUS:
4|-3--5-5--3--5-5----------|
5|-3--5-5--3--5-5----------|x4
6|-3--5-5--3--5-5--0-3b-0-|

Solo 1:
1|-----------------------------------------------|
2|---8---8--8--8--8---8---8-8-8--8-8-8---------|
3|--10b-10-10-10-10-10---7-7-7--6-6-6--------| x2
4|-----------------------------------------------|
5|-----------------------------------------------|
6|-----------------------------------------------|
      |hold bend----------| 

1|-----------------------------------------------|
2|---8---8--8--8--8---8---8---8--8--8--8---8---|
3|--10b-10-10-10-10-10--10b-10-10-10-10-10--|
4|-----------------------------------------------|
5|-----------------------------------------------|
6|-----------------------------------------------|
      hold bend-----------|   hold bend-----------| 

1|-13-13-13-12-13-13-12-13-13-13-15-15-15-15-15-15---|
2|-12-12-12-12-12-12-12-12-12-12-12-12-12-12-12-12---|
3|---------------------------------------------------------|
4|---------------------------------------------------------|
5|---------------------------------------------------------|
6|---------------------------------------------------------|

Verse intro:
3|-------------------------------3-----3---|
4|-------------------------------5b---5b--|
5|-----------------------------------------| x3
6|-3p0-0-5p0-0-6p0-0-5p0-0--------------|
     P.M-----------------------|

3|--------------------------------9-----9----|
4|-------------------------------11b---11b--|
5|-------------------------------------------|
6|-3p0-0-5p0-0-6p0-0-5p0-0----------------|
     P.M-----------------------|

VERSE:
5|----------------------------------------|-----------------------------------
------|
6|-3p0-0-5p0-0-6p0-0-5p0-0--6--6--6---|-3p0-0-5p0-0-6p0-0-5p0-0--6--5--6--5-|
     P.M.-------------------------------|
       P.M.----------------------------------|

Solo 2
1|---------------------------6-6--6----------------------------------|
2|---8---8----3--3-3-3-3-3--6-6--6---6-------5p3--------------3----|
3|--10b-10b--5b-5-5-5-5-5--------5b--3------5p3--------------3----|
4|-----------------------------------------5--------5---3---5--------|
5|--------------------------------------------------------------------|
6|--------------------------------------------------------------------|
                        hold bend---|

1|--------x-x-x----------------------------------------6-6-6-6-6----|
2|--------x-x-x---8---8--8-----1--1-1---1--1-3-3---3-6-6-6-6-6----|
3|--/12\---------10b-10-10----5b-5-5---5b-5-5-5---5---------------|
4|--------------------------------------------------------------------|
5|--------------------------------------------------------------------|
6|--------------------------------------------------------------------|
                            hold Bend-|    hold Bend   hold Bend

1|----------------------------|
2|----5-5-3--------3--3------|
3|--3-5-5-3--------3--3---3\-|
4|-----------5-3-5------------|
5|----------------------------|
6|----------------------------|

Fill 1:
3|-------------------------------3-----3---|
4|-------------------------------5b---5b--|
5|-----------------------------------------| x3
6|-----------------------------------------|
  
3|--------------------------------9-----9----|
4|-------------------------------11b---11b--|
5|-------------------------------------------|
6|-------------------------------------------|

Solo 3
1|----------------------------------------------------------------------------
--|
2|-10-10-10-10-10-10-10-10----3--3---3--3-3-3--3--3-3--3--3--3-------------|
3|-10-10-10-10-10-10-10-10----5b-5---5b-5-5-5--5b-5-5--5--2--0------------|
4|--------------------------------------------------------------------5h6p5p3-
-|
5|----------------------------------------------------------------------------
--|
6|----------------------------------------------------------------------------
--|

4|----------------------------------------------------------------------------
|
5|----------------------7--7--7--7--7---7-7-7-----7--7--7--7--7---7-7-7----|
6|-0-------------------12-12-12-11-11-11-8-8----12-12-12-11-11-11-8-8---|

1|--10-10-10-10-10-10-10-10--10--10-10-10-10-10-10-10-----|
2|--13-13-13-12-12-12-10-10--13b-13-13-13-13-13-13-13-----|
3|---------------------------------------------------------------|
4|---------------------------------------------------------------|
5|---------------------------------------------------------------|
6|---------------------------------------------------------------|
                                                     Hold
bend------------------|

Order of the song is:
intro 
chorus
Solo 1
verse intro
verse x4
intro riff
chorus x 2
verse intro          
verse 4
intro riff
chorus
Solo 2
Fill 1

I saw that the current tab was wrong so I thought I would post the real
version.
Luv and H8   =/\
verse x 2
intro riff
chorus x 2 
Solo 3
            
Submit corrections

↑ Back to top | Tablatures and chords for acoustic guitar and electric guitar, ukulele, drums are parodies/interpretations of the original songs. You may use it for private study, scholarship, research or language learning purposes only