Home » W » White Snake »

White Snake - Youngblood Tabs

Artists:  A B C D E F G H I J K L M N O P Q R S T U V W X Y Z # 

Youngblood Tabs

(ver. 1) Click to play this song!
White Snake
 Rating:
4/5 (4 votes)
                * * Repeat Once Unless Stated


   Main Riff                               x5
E||------------------------------------------|
B||*----------------------------------------*|
G||---7--7--7--7-----5----7--7--7--7-----5---|
D||---7--7--7--7---3-5----7--7--7--7---2-5---|
A||*--555555555555-3-3----555555555555-2-3--*|
E||----------------1-------------------0-----|

This fill is wrong ??????
   Fill      x3
E||------------|
B||*--8-------*|
G||-----10-----|
D||--------7---|
A||*----------*|
E||------------|

   Bridge
E||-------------------------------------------------------|
B||-------------------------------------------------------|
G||--2-2---2-2---2---2---------------2-2---2-2---5--------|
D||--2-2---2-2---2---2-----2---------2-2---2-2---5--5--3--|
A||--0-0---0-0---0---0-2-3---3-2-0---0-0---0-0---3--5--3--|
E||-------------------------------------------------3--1--|

   Chorus                       x2
E||-------------------------------|
B||-------------------------------|
G||--7---5-------5-5-----5-5------|
D||--7---5---5---5-5-5-5-5-5-5-5--|
A||--5---3---5---3-3-5-5-3-3-5-5--|
E||----------3-------3-3-----3-3--|

Then Play:
Main Riff x4
Fill
Bridge
Chorus x2
Solo
Bridge
Chorus x4

Then 

E||----------------------------------|
B||----------------------------------|
G||--7---5----------5-5-----5-5------|
D||--7---5---5-5----5-5-5-5-5-5-5-5--|
A||--5---3---5-5----3-3-5-5-3-3-5-5--|
E||----------3-3--------3-3-----3-3--|
            
Submit corrections

↑ Back to top | Tablatures and chords for acoustic guitar and electric guitar, ukulele, drums are parodies/interpretations of the original songs. You may use it for private study, scholarship, research or language learning purposes only