Home » W » White Snake »

White Snake - Ready An Willing Tabs

Artists:  A B C D E F G H I J K L M N O P Q R S T U V W X Y Z # 

Ready An Willing Tabs

(ver. 1) Click to play this song!
White Snake
 Rating:
1.9/5 (30 votes)
                 Intro
  Q=108(16=s16)
             Gm7
 4/4
  Gtrs I, II (El. Gtrs. w/ dist.)
  H    Q  E. S   +E  e e e e e S S S S
|--------------|-----------------------|
|--------------|-----------------------|
|------------3-|-(3)-------------3-5-3-|
|------------3-|-(3)-5-5-5-5-5-5-3-5-3-|
|--------------|-----5-5-5-5-5-5-------|
|--------------|-----------------------|


  +E  e e e e e S S S S   +E  e e e e e S S S S
|-----------------------|------------------------|
|-----------------------|------------------------|
|-(3)-------------3-5-3-|-(3)-------------3-5-3--|
|-(3)-5-5-5-5-5-5-3-5-3-|-(3)-5-5-5-5-5-5-3-5-3--|
|-----5-5-5-5-5-5-------|-----5-5-5-5-5-5--------|
|-----------------------|------------------------|


                                  1st & 2nd Verses
                                   Gm7
  +E  e e e E S S    +S  S S S     +E  e e e e e S S S S
|------------------------------||------------------------|
|-----------3-5-5pb6r(5)-3-----||o-----------------------|
|-(3)-------3-5-5pb6r(5)-3---3-||--(3)-------------3-5-3-|
|-(3)-5-5-5----------------5-3-||--(3)-5-5-5-5-5-5-3-5-3-|
|-----5-5-5--------------------||o-----5-5-5-5-5-5-------|
|------------------------------||------------------------|


  +E  e e e e e S S S S   +E  e e e e e S S S S
|-----------------------|-------------------------|
|-----------------------|-------------------------|
|-(3)-------------3-5-3-|-(3)-------------3-5-3---|
|-(3)-5-5-5-5-5-5-3-5-3-|-(3)-5-5-5-5-5-5-3-5-3---|
|-----5-5-5-5-5-5-------|-----5-5-5-5-5-5---------|
|-----------------------|-------------------------|


                          Cm7
  +E  e e e e e S S S S   +E   e  e  e  e  e  S S  S S
|-----------------------|------------------------------|
|-----------------------|------------------------------|
|-(3)-------------3-5-8-|-(8)-------------------8-10-8-|
|-(3)-5-5-5-5-5-5-3-5-8-|-(8)-10-10-10-10-10-10-8-10-8-|
|-----5-5-5-5-5-5-------|-----10-10-10-10-10-10--------|
|-----------------------|------------------------------|


                                         Gm7
  +E   e  e  e E  S  S      +S  S  S S   +E  e e e e e S S S S
|--------------------------------------|-------------------------|
|--------------8-10-10pb11r(10)-8------|-------------------------|
|-(8)----------8-10-10pb11r(10)-8----3-|-(3)-------------3-5-3---|
|-(8)-10-10-10--------------------10-3-|-(3)-5-5-5-5-5-5-3-5-3---|
|-----10-10-10-------------------------|-----5-5-5-5-5-5---------|
|--------------------------------------|-------------------------|


                  N.C.
  +E  e e e e e S S S S   +E  S S +E  S S +E  S S +E  S S
|-----------------------|---------------------------------|
|-----------------------|---------------------------------|
|-(3)-------------------|---------------------------------|
|-(3)-5-5-5-5-5-5-------|---------------------------------|
|-----5-5-5-5-5-5-3-4-5-|-(5)---3-(3)---2-(2)-----------3-|
|-----------------------|-----------------------5-(5)-----|


                                   1.
                                Gm7
  +E  S S +E  S S +E  S S +E  S S   +E  e e e e e S S S S
|---------------------------------|--------------------------|
|---------------------------------|--------------------------|
|-------------------------------3-|-(3)-------------3-5-3----|
|-------------------------------3-|-(3)-5-5-5-5-5-5-3-5-3----|
|-(3)-----------------------------|-----5-5-5-5-5-5----------|
|-------6-(6)---5-(5)---1-(1)-----|--------------------------|


  +E  e e e E S S    +S  S S S
|-------------------------------||
|-----------3-5-5pb6r(5)-3-----o||
|-(3)-------3-5-5pb6r(5)-3---3--||
|-(3)-5-5-5----------------5-3--||
|-----5-5-5--------------------o||
|-------------------------------||


 2.
                                                     Bb
  +E  e e e e e S S S S   +E  e e e E S S    +S  S S S
|-----------------------|------------------------------||
|-----------------------|-----------3-5-5pb6r(5)-3---3-||
|-(3)-------------3-5-3-|-(3)-------3-5-5pb6r(5)-3---3-||
|-(3)-5-5-5-5-5-5-3-5-3-|-(3)-5-5-5----------------5-3-||
|-----5-5-5-5-5-5-------|-----5-5-5------------------1-||
|-----------------------|------------------------------||


 Pre-Chorus
  $
  Bb           F          Cm7         Gm7                            Bb
  +W           W          H.      +E. S   +E  e e e E S S    +S  S S S
|------------|-1--------|-3-------(3)---|------------------------------|
|-(3)--------|-1--------|-4-------(4)---|-----------3-5-5pb6r(5)-3---3-|
|-(3)--------|-2--------|-3-------(3)-3-|-(3)-------3-5-5pb6r(5)-3---3-|
|-(3)--------|-3--------|-5-------(5)-3-|-(3)-5-5-5----------------5-3-|
|-(1)--------|-3--------|-3-------(3)---|-----5-5-5------------------1-|
|------------|-1--------|---------------|------------------------------|


               F          Cm7        D7+9
  +W           W          W          E Q.   Q  E. S
|------------|-1--------|-3--------|------------------||
|-(3)--------|-1--------|-4--------|-6-6\-------------||
|-(3)--------|-2--------|-3--------|-5-5\-------------||
|-(3)--------|-3--------|-5--------|-4-4\---------3h==||
|-(1)--------|-3--------|-3--------|-5-5\---------3h==||
|------------|-1--------|----------|------------------||
|
|                                    Gtr II
|  W           W          W          E Q.   Q  E. S
|------------|----------|----------|------------------||
|------------|----------|----------|-6-6\---------3---||
|------------|----------|----------|-5-5\---------3---||
|------------|----------|----------|-4-4\---------3---||
|------------|----------|----------|-5-5\-------------||
|------------|----------|----------|------------------||


 Chorus
  Gm7
   S  S e e e e e e  S S    S  S e e e e e e  S S
|------------------------|------------------------|
|------------------------|------------------------|
|-----3------------------|-----3------------------|
|--5--3-5-5-5-5-5-5--5-3h|==5--3-5-5-5-5-5-5--5-3h|
|--5----5-5-5-5-5-5--5-3h|==5----5-5-5-5-5-5--5-3h|
|------------------------|------------------------|
|
| +H          Q   E.   S   +H.             E.   S
|------------------------|------------------------|
|-(3)---------5---5----3-|-(3)-------------3----3-|
|-(3)---------5---5----3-|-(3)-------------3----3-|
|-(3)---------5---5----3-|-(3)-------------3----3-|
|------------------------|------------------------|
|------------------------|------------------------|


                  To Coda
   S  S e e e e e e  S S     S  S e e E  E  S S    +S  S S S
|-------------------------|-----------------------------------|
|-------------------------|--------------3--5-5pb6r(5)-3------|
|-----3-------------------|-----3--------3--5-5pb6r(5)-3------|
|--5--3-5-5-5-5-5-5--5-3h=|==5--3-5-5-5------------------5-3h=|
|--5----5-5-5-5-5-5--5-3h=|==5----5-5-5--------------------3h=|
|-------------------------|-----------------------------------|
|
| +H          Q   E.   S    +H          +E  S S    +S  S S S
|-------------------------|-----------------------------------|
|-(3)---------5---5----3--|-(3)---------(3)-5-5pb6r(5)-3------|
|-(3)---------5---5----3--|-(3)---------(3)-5-5pb6r(5)-3------|
|-(3)---------5---5----3--|-(3)---------(3)--------------5----|
|-------------------------|--------------------------------3h=|
|-------------------------|-----------------------------------|


  S S e e e e e e  S S   S S e e e e e e  S S
|----------------------|----------------------|
|----------------------|----------------------|
|---3------------------|---3------------------|
|-5-3-5-5-5-5-5-5--5-3h|=5-3-5-5-5-5-5-5--5-3h|
|-5---5-5-5-5-5-5--5-3h|=5---5-5-5-5-5-5--5-3h|
|----------------------|----------------------|
|
| S S E Q   Q   E.   S   S S E Q   Q   E.   S
|----------------------|----------------------|
|----------------------|----------------------|
|---3------------------|---3------------------|
|----------------------|----------------------|
|-5------------------3h|=5------------------3h|
|----------------------|----------------------|


  S S e e e e e e  S S   S S e e e e e e S    S
|----------------------|------------------------||
|----------------------|------------------------||
|---3------------------|---3------------------8-||
|-5-3-5-5-5-5-5-5--5-3h|=5-3-5-5-5-5-5-5-5----8-||
|-5---5-5-5-5-5-5--5-3h|=5---5-5-5-5-5-5-5------||
|----------------------|------------------------||
|
| S S E Q   Q   E.   S   S S E Q   Q   E E
|----------------------|------------------------||
|----------------------|------------------------||
|---3------------------|---3-------------5b7====||
|----------------------|------------------------||
|-5------------------3h|=5----------------------||
|----------------------|------------------------||


 Guitar Solo
  Cm7
  +E   e     e  e    e     e    S  S  S S
|-----------------------------------------|
|-----------------------------------------|
|-(8)------------------------------8-10-8-|
|-(8)-10----10-10---10----10---10--8-10-8-|
|-----10----10-10---10----10---10---------|
|-----------------------------------------|
|
| +E  +S  S  E  S S +S  S  S S  E.      S
|-----------------------------------------|
|-----------------------------------------|
|-(5)r(5)p3--5----5-(5)-3--5p3--5-------3-|
|-----------------------------------------|
|-----------------------------------------|
|-----------------------------------------|


                                        Gm7
  +E    e  e     e  e     e   S S S S   +E  e e    e    e     e     S S S S
|-------------------------------------|-------------------------------------|
|-------------------------------------|-------------------------------------|
|-(8)-------------------------5-3-2-3-|-(3)-3-3----3----3-----3-------3-5-3-|
|-(8)--10-10----10-10----10---5-3-2-3-|-(3)-3-3----3----3-----3-----5-3-5-3-|
|------10-10----10-10----10-----------|-----------------------------5-------|
|-------------------------------------|-------------------------------------|
|
|  S S  E +S  S  E +S  S  S S S S S S    Q    E   +S  S S   S S   S S S S S
|-------------------------------------|---------------------3-----3---------|
|-------------------------------------|-----------------6b8---6b8---6-5p3---|
|--5p3------------------------------3-|-------3b5-(3)---------------------5-|
|-------5-(5)-3--5-(5)-3--5p3-5p3-5---|--5----------------------------------|
|-------------------------------------|-------------------------------------|
|-------------------------------------|-------------------------------------|


                                     Cm7
  E  e e e e     e    S S  S    S    +E   e      e      e      e  e     S S  S S
|----------------------------------|---------------------------------------------|
|----------------------------------|---------------------------------------------|
|-3-----------------------------8--|-(8)----------------------------------8-10-8-|
|-3--5-5-5-5-----5------8-10----8--|-(8)-10-----10-----10-----10-10----10-8-10-8-|
|----5-5-5-5-----5---10-8-10-------|-----10-----10-----10-----10-10----10--------|
|--------------------10------------|---------------------------------------------|
|
|          |-3-|
| H        S S S S S  E    S   +S     E   E     +S   S  E      E +S  S  E    S S
|----------------------------------|---------------------------------------------|
|----------------------------------|------8b11==(8)r-6--8b11===8r(8)p6--8------8-|
|-3\---------------3-------3b5-(3)-|---------------------------------------------|
|--------------3-5----5------------|---------------------------------------------|
|----------3h5---------------------|---------------------------------------------|
|----------------------------------|---------------------------------------------|


  +E     e      e  e     e  e   S S S S
|----------------------------------------|
|----------------------------------------|
|-(8)---------------------------5-3-2-3--|
|-(8)---10-----10-10----10-10---5-3-2-3--|
|-------10-----10-10----10-10------------|
|----------------------------------------|
|
| +S  S  E      E +S  S  E.   S Q
|----------------------------------------|
|-(8)-6--8b11===8r(8)p6--8p===6-8--------|
|----------------------------------------|
|----------------------------------------|
|----------------------------------------|
|----------------------------------------|


  Gm7
  +E       e   e    e   e e   S S S S
|-------------------------------------|
|-------------------------------------|
|-(3)---------------------------3-5-3-|
|-(3)------5---5----5---5-5---5-3-5-3-|
|----------5---5----5---5-5---5-------|
|-------------------------------------|
|
|  S     S S S S  S S S E S S E   S S
|--8b10==8-8-8-8r-8-6-8-6-------------|
|-------------------------8p6-8---6---|
|-----------------------------------7-|
|-------------------------------------|
|-------------------------------------|
|-------------------------------------|


                           D.S. al Coda &
                                           Gm7
  +E    e   e   e   E S S    +S  S S S     S  S e e e e e  E  S S
|---------------------------------------||-------------------------||
|-------------------3-5-5pb6r(5)-3---3--||-------------------------||
|-(3)---------------3-5-5pb6r(5)-3---3--||----3--------------------||
|-(3)---5---5---5------------------5-3--||-5--3-5-5-5-5-5--5--5-3h=||
|-------5---5---5--------------------1--||-5----5-5-5-5-5--5--5-3h=||
|---------------------------------------||-------------------------||
|
|  S  S S S S S S S E S S     Q            H.             +E.   S
|---------------------------------------||-------------------------||
|--6------------------------------------||-3--------------(3)---3--||
|-----7s5-3-5p3-------------------------||-3--------------(3)---3--||
|---------------5p3-5-5p3-----5\--------||-3--------------(3)---3--||
|---------------------------------------||-------------------------||
|---------------------------------------||-------------------------||


 Outro
  Gm7
   S  S e e e e e E  S S    S  S e e e e e  E  S S
|------------------------|-------------------------|
|------------------------|-------------------------|
|-----3------------------|-----3-------------------|
|--5--3-5-5-5-5-5-5--5-3h|==5--3-5-5-5-5-5--5--5-3h|
|--5----5-5-5-5-5-5--5-3h|==5----5-5-5-5-5--5--5-3h|
|------------------------|-------------------------|
|
| +H          Q   E.   S   +H.             +E.   S
|------------------------|-------------------------|
|-(3)---------5---5----3-|-(3)-------------(3)---3-|
|-(3)---------5---5----3-|-(3)-------------(3)---3-|
|-(3)---------5---5----3-|-(3)-------------(3)---3-|
|------------------------|-------------------------|
|------------------------|-------------------------|


   S  S e e e e e E  S S    S  S e e e e e  E  S S
|------------------------|--------------------------|
|------------------------|--------------------------|
|-----3------------------|-----3--------------------|
|--5--3-5-5-5-5-5-5--5-3h|==5--3-5-5-5-5-5--5--5-3h=|
|--5----5-5-5-5-5-5--5-3h|==5----5-5-5-5-5--5--5-3h=|
|------------------------|--------------------------|
|
| +H          Q   E.   S   +H.             +E.   S
|------------------------|--------------------------|
|-(3)---------5---5----3-|-(3)-------------(3)---3--|
|-(3)---------5---5----3-|-(3)-------------(3)---3--|
|-(3)---------5---5----3-|-(3)-------------(3)---3--|
|------------------------|--------------------------|
|------------------------|--------------------------|


     S  S e e e e e E  S S    S  S e e e e e  E  S S
||-------------------------|-------------------------|
||o------------------------|-------------------------|
||------3------------------|-----3-------------------|
||---5--3-5-5-5-5-5-5--5-3h|==5--3-5-5-5-5-5--5--5-3h|
||o--5----5-5-5-5-5-5--5-3h|==5----5-5-5-5-5--5--5-3h|
||-------------------------|-------------------------|
|
|   +H          Q   E.   S   +H.             +E.   S
||-------------------------|-------------------------|
||o-(3)---------5---5----3-|-(3)-------------(3)---3-|
||--(3)---------5---5----3-|-(3)-------------(3)---3-|
||--(3)---------5---5----3-|-(3)-------------(3)---3-|
||o------------------------|-------------------------|
||-------------------------|-------------------------|


   S  S e e e e e E  S S    S  S e e e e e  E  S S    7x
|------------------------|----------------------------||
|------------------------|---------------------------o||
|-----3------------------|-----3----------------------||
|--5--3-5-5-5-5-5-5--5-3h|==5--3-5-5-5-5-5--5--5-3----||
|--5----5-5-5-5-5-5--5-3h|==5----5-5-5-5-5--5--5-3---o||
|------------------------|----------------------------||
|
| +H          Q   E.   S   +H.             +E.   S    7x
|------------------------|----------------------------||
|-(3)---------5---5----3-|-(3)-------------(3)---3---o||
|-(3)---------5---5----3-|-(3)-------------(3)---3----||
|-(3)---------5---5----3-|-(3)-------------(3)---3----||
|------------------------|---------------------------o||
|------------------------|----------------------------||            
Submit corrections

↑ Back to top | Tablatures and chords for acoustic guitar and electric guitar, ukulele, drums are parodies/interpretations of the original songs. You may use it for private study, scholarship, research or language learning purposes only