Home » W » White Snake »

White Snake - Love Aint No Stranger Tabs

Artists:  A B C D E F G H I J K L M N O P Q R S T U V W X Y Z # 

Love Aint No Stranger Tabs

(ver. 1) Click to play this song!
White Snake
 Rating:
4.3/5 (29 votes)
                [Intro] X 5

e|-----------------------------------------|
B|----------------3--------------------2---|
G|-----2--------2---------2----------2-----|
D|---0--------0---------2--------2h4-------|
A|--------------------0------2-------------|
E|-2-------3-------------------------------|

Then it goes into an Em chord once an then into an A7 chord once. After that the verse is played on an 
electric guitar and it looks like this:

[Verse]

e|-----------------------------------------|
B|-----------------------------------------|
G|--------------------------2--------------|
D|--4-4-4---4-4-4---4-4-4---2---2----------|
A|--2-0-2---2-0-2---2-0-2-------2----------|
E|-----------------------------------------|

e|--------------------------|
B|--------------------------|
G|------------------2-------|
D|--4-4-4---4-4-4---2---2---|
A|--2-0-2---2-0-2-------2---|
E|--------------------------|

e|-------------------------------------------------|
B|-------------------------------------------------|
G|--------------------------2----------------------|
D|--4-4-4---4-4-4---4-4-4---2---2--------4-4-4-----|
A|--2-0-2---2-0-2---2-0-2-------2--------2-0-2-----|
E|-------------------------------------------------|

Then is the chorus.

[Chorus] X 2

e|---------------------|-----------------------------|
B|---------------------|-----------------------------|
G|---------------------|-----------------------------|
D|------------7--------|-------------7--7------------|
A|-5-5-5-5-5--5--7-----|--5-5-5-5-5--5--5--7--7------|
E|-3-3-3-3-3-----5-----|--3-3-3-3-3--------5--5------|

Then back to the verse.

[Verse]

e|-----------------------------------------|
B|-----------------------------------------|
G|--------------------------2--------------|
D|--4-4-4---4-4-4---4-4-4---2---2----------|
A|--2-0-2---2-0-2---2-0-2-------2----------|
E|-----------------------------------------|

e|--------------------------|
B|--------------------------|
G|------------------2-------|
D|--4-4-4---4-4-4---2---2---|
A|--2-0-2---2-0-2-------2---|
E|--------------------------|

e|-------------------------------------------------|
B|-------------------------------------------------|
G|--------------------------2----------------------|
D|--4-4-4---4-4-4---4-4-4---2---2--------4-4-4-----|
A|--2-0-2---2-0-2---2-0-2-------2--------2-0-2-----|
E|-------------------------------------------------|

[Chorus] X 2

e|---------------------|-----------------------------|
B|---------------------|-----------------------------|
G|---------------------|-----------------------------|
D|------------7--------|-------------7--7------------|
A|-5-5-5-5-5--5--7-----|--5-5-5-5-5--5--5--7--7------|
E|-3-3-3-3-3-----5-----|--3-3-3-3-3--------5--5------|

[Solo]

e|-----------------------------------7----------------------------------|
B|----------------------------------------------------------------------|
G|--2-2b-------4-6-7-6-4-2-4-4----9b---9-7-9---7-6----------------------|
D|-------------------------------------------------7-9-7----------------|
A|-------------------------------------------------------9-7-5-7-5-4----|
E|-------------------------------------------------------------------7--|

e|---------------------------------------------------------------12b----|
B|-------------------------------7---7--------10-12-12b----10-12--------|
G|---------------------6-7-9-7-9---9-----9/11---------------------------|
D|---------------7---9--------------------------------------------------|
A|--------7-9-10--------------------------------------------------------|
E|-7-9-10---------------------------------------------------------------|

e|-12---12-12------------10--12-12b---12b--12-10-9-9b-9----17b-17-15----15---------|
B|------------12----10b----------------------------------------------17----17--17b-|
G|---------------------------------------------------------------------------------|
D|---------------------------------------------------------------------------------|
A|---------------------------------------------------------------------------------|
E|---------------------------------------------------------------------------------|

Then the bridge is the same as the intro:

[Bridge]

e|-----------------------------------------|
B|----------------3--------------------2---|
G|-----2--------2---------2----------2-----|
D|---0--------0---------2--------2h4-------|
A|--------------------0------2-------------|
E|-2-------3-------------------------------|

After that just as the intro an Em chord is played and then an A7 chord.

The verse is a bit different in the beginning as you will se in the tabs below.

[Verse]

e|-----------------------------------------|
B|-----------------------------------------|
G|--------------------------2--------------|
D|--4-4-4---4-4-4---4-4-4---2-------4-4-4--|
A|--2-0-2---2-0-2---2-0-2-----------2-0-2--|
E|-----------------------------------------|

e|--------------------------|
B|--------------------------|
G|------------------2-------|
D|--4-4-4---4-4-4---2---2---|
A|--2-0-2---2-0-2-------2---|
E|--------------------------|

e|-------------------------------------------------|
B|-------------------------------------------------|
G|--------------------------2----------------------|
D|--4-4-4---4-4-4---4-4-4---2---2--------4-4-4-----|
A|--2-0-2---2-0-2---2-0-2-------2--------2-0-2-----|
E|-------------------------------------------------|

[Chorus] X 2

e|---------------------|-----------------------------|
B|---------------------|-----------------------------|
G|---------------------|-----------------------------|
D|------------7--------|-------------7--7------------|
A|-5-5-5-5-5--5--7-----|--5-5-5-5-5--5--5--7--7------|
E|-3-3-3-3-3-----5-----|--3-3-3-3-3--------5--5------|

The outro below might not be correct but that is how I play it, just like the intro.

[Outro]

e|-----------------------------------------|
B|----------------3--------------------2---|
G|-----2--------2---------2----------2-----|
D|---0--------0---------2--------2h4-------|
A|--------------------0------2-------------|
E|-2-------3-------------------------------|            
Submit corrections

↑ Back to top | Tablatures and chords for acoustic guitar and electric guitar, ukulele, drums are parodies/interpretations of the original songs. You may use it for private study, scholarship, research or language learning purposes only