Home » W » White Snake »

White Snake - Black And Blue Tabs

Artists:  A B C D E F G H I J K L M N O P Q R S T U V W X Y Z # 

Black And Blue Tabs

(ver. 1) Click to play this song!
White Snake
 Rating:
3.6/5 (27 votes)
                 Intro
  Q=132
            C5
 4/4
  Gtrs I, II (El. Gtrs. w/ dist.)
  H    Q  E E   +E  E E E E E E E   E E E E E E E E
|-------------|-------------------|-----------------|
|-------------|-------------------|-----------------|
|-------------|-------------------|-----------------|
|-----------5-|-(5)-5-7-5-5-5-7-5-|-5-5-7-5-5-5-7-5-|
|-----------3-|-(3)-3-3-3-3-3-3-3-|-3-3-3-3-3-3-3-3-|
|-------------|-------------------|-----------------|


  +E  E E E E E E E   +E  E E E E E E E
|-------------------|---------------------||
|-------------------|---------------------||
|-------------------|---------------------||
|-(5)-5-7-5-5-5-7-5-|-(5)-5-7-5-5-5-7-5---||
|-(3)-3-3-3-3-3-3-3-|-(3)-3-3-3-3-3-3-3---||
|-------------------|---------------------||


   Pre-Verse
    G5            F5                  C5
    E E E E E E E E   +E  E E E E E E E
||------------------|-------------------|
||o-----------------|-------------------|
||------------------|-------------------|
||------------------|-----------------5-|
||o-5-5-7-5-5-5-7-3-|-(3)-3-5-3-3-3-5-3-|
||--3-3-3-3-3-3-3-1-|-(1)-1-1-1-1-1-1---|


  +E  E E E E E E E   +E  E E E E E E E
|-------------------|---------------------||
|-------------------|--------------------o||
|-------------------|---------------------||
|-(5)-5-7-5-5-5-7-5-|-(5)-5-7-5-5-5-7-5---||
|-(3)-3-3-3-3-3-3-3-|-(3)-3-3-3-3-3-3-3--o||
|-------------------|---------------------||


   1st & 2nd Verses
    G5            F5                  C5
    E E E E E E E E   +E  E E E E E E E
||------------------|-------------------|
||o-----------------|-------------------|
||------------------|-------------------|
||------------------|-----------------5-|
||o-5-5-7-5-5-5-7-3-|-(3)-3-5-3-3-3-5-3-|
||--3-3-3-3-3-3-3-1-|-(1)-1-1-1-1-1-1---|


                                      G5
  +E  E E E E E E E   +E  E E E E E E E
|-------------------|--------------------|
|-------------------|--------------------|
|-------------------|--------------------|
|-(5)-5-7-5-5-5-7-5-|-(5)-5-7-5-5-5-7----|
|-(3)-3-3-3-3-3-3-3-|-(3)-3-3-3-3-3-3-5--|
|-------------------|-----------------3--|


                  F5                  C5
  +E  E E E E E E E   +E  E E E E E E E
|-------------------|-------------------|
|-------------------|-------------------|
|-------------------|-------------------|
|-------------------|-----------------5-|
|-(5)-5-7-5-5-5-7-3-|-(3)-3-5-3-3-3-5-3-|
|-(3)-3-3-3-3-3-3-1-|-(1)-1-1-1-1-1-1---|


  +E  E E E E E E E   +E  E E E E E E E
|-------------------|-------------------||
|-------------------|-------------------||
|-------------------|-------------------||
|-(5)-5-7-5-5-5-7-5-|-(5)-5-7-5-5-5-7-5-||
|-(3)-3-3-3-3-3-3-3-|-(3)-3-3-3-3-3-3-3-||
|-------------------|-------------------||


 Pre-Chorus
  $
  F    C      F    C      G5
  H    H      H    H      E E E E E E E E   +E  E E E E E E E
|-1----3----|-1----3----|-----------------|-------------------|
|-1----5----|-1----5----|-----------------|-------------------|
|-2----5----|-2----5----|-----------------|-------------------|
|-3----5----|-3----5----|-----------------|-------------------|
|-3----3----|-3----3----|-5-5-7-5-5-5-7-5-|-(5)-5-7-5-5-5-7-5-|
|-----------|-----------|-3-3-3-3-3-3-3-3-|-(3)-3-3-3-3-3-3-3-|


  F    C      F    C      G5
  H    H      H    H      E E E E E E E E   +E  E E E E E E E
|-1----3----|-1----3----|-----------------|-------------------||
|-1----5----|-1----5----|-----------------|-------------------||
|-2----5----|-2----5----|-----------------|-------------------||
|-3----5----|-3----5----|-----------------|-------------------||
|-3----3----|-3----3----|-5-5-7-5-5-5-7-5-|-(5)-5-7-5-5-5-7-5-||
|-----------|-----------|-3-3-3-3-3-3-3-3-|-(3)-3-3-3-3-3-3-3-||


 Chorus
  Am      G F              C5                                      F5
  H.      E E   +H..       E   +E  E E E E E E E   +E  E E E E E E E
|-5-------3-1-|-(1)----------|-------------------|-------------------|
|-5-------3-1-|-(1)----------|-------------------|-------------------|
|-5-------4-2-|-(2)----------|-------------------|-------------------|
|-7-------5-3-|-(3)--------5-|-(5)-5-7-5-5-5-7-5-|-(5)-5-7-5-5-5-7---|
|-7-------5-3-|-(3)--------3-|-(3)-3-3-3-3-3-3-3-|-(3)-3-3-3-3-3-3-3-|
|-5-------3-1-|-(1)----------|-------------------|-----------------1-|


                  G5                  C5
  +E  E E E E E E E   +E  E E E E E E E
|-------------------|-------------------|
|-------------------|-------------------|
|-------------------|-------------------|
|-------------------|-----------------5-|
|-(3)-3-5-3-3-3-5-5-|-(5)-5-7-5-5-5-7-3-|
|-(1)-1-1-1-1-1-1-3-|-(3)-3-3-3-3-3-3---|


 1.
  +E  E E E E E E E   +E  E E E E E E E
|-------------------|--------------------||
|-------------------|-------------------o||
|-------------------|--------------------||
|-(5)-5-7-5-5-5-7-5-|-(5)-5-7-5-5-5-7-5--||
|-(3)-3-3-3-3-3-3-3-|-(3)-3-3-3-3-3-3-3-o||
|-------------------|--------------------||


  2.,D.S.
  C5                                      Am      G F              C5
  +E  E E E E E E E   +E  E E E E E E E   H.      E E   +H..       E
|-------------------|-------------------|-5-------3-1-|-(1)----------|
|-------------------|-------------------|-5-------3-1-|-(1)----------|
|-------------------|-------------------|-5-------4-2-|-(2)----------|
|-(5)-5-7-5-5-5-7-5-|-(5)-5-7-5-5-5-7-5-|-7-------5-3-|-(3)--------5-|
|-(3)-3-3-3-3-3-3-3-|-(3)-3-3-3-3-3-3-3-|-7-------5-3-|-(3)--------3-|
|-------------------|-------------------|-5-------3-1-|-(1)----------|


                                      F5
  +E  E E E E E E E   +E  E E E E E E E
|-------------------|-------------------|
|-------------------|-------------------|
|-------------------|-------------------|
|-(5)-5-7-5-5-5-7-5-|-(5)-5-7-5-5-5-7---|
|-(3)-3-3-3-3-3-3-3-|-(3)-3-3-3-3-3-3-3-|
|-------------------|-----------------1-|


                                 To Coda
                  G5
  +E  E E E E E E E   +E  E E E E E E E
|-------------------|---------------------||
|-------------------|---------------------||
|-------------------|---------------------||
|-------------------|---------------------||
|-(3)-3-5-3-3-3-5-5-|-(5)-5-7-5-5-5-7-5---||
|-(1)-1-1-1-1-1-1-3-|-(3)-3-3-3-3-3-3-3---||


 Bridge
  C5   Bb5        F5   C5
                                              2/4
  Q.   E +H       E Q  E +H       +W           +H
|---------------|---------------|------------|--------||
|---------------|---------------|------------|--------||
|-5----3-(3)----|------5-(5)----|-(5)--------|-(5)----||
|-5----3-(3)----|-3-3--5-(5)----|-(5)--------|-(5)----||
|-3----1-(1)----|-3-3--3-(3)----|-(3)--------|-(3)----||
|---------------|-1-1-----------|------------|--------||


 Piano Solo
  G5            F5                  C5                                      G5
 4/4
  E E E E E E E E   +E  E E E E E E E   +E  E E E E E E E   +E  E E E E E E E
|-----------------|-------------------|-------------------|--------------------|
|-----------------|-------------------|-------------------|--------------------|
|-----------------|-------------------|-------------------|--------------------|
|-----------------|-----------------5-|-(5)-5-7-5-5-5-7-5-|-(5)-5-7-5-5-5-7----|
|-5-5-7-5-5-5-7-3-|-(3)-3-5-3-3-3-5-3-|-(3)-3-3-3-3-3-3-3-|-(3)-3-3-3-3-3-3-5--|
|-3-3-3-3-3-3-3-1-|-(1)-1-1-1-1-1-1---|-------------------|-----------------3--|


                  F5                  C5
  +E  E E E E E E E   +E  E E E E E E E
|-------------------|-------------------|
|-------------------|-------------------|
|-------------------|-------------------|
|-------------------|-----------------5-|
|-(5)-5-7-5-5-5-7-3-|-(3)-3-5-3-3-3-5-3-|
|-(3)-3-3-3-3-3-3-1-|-(1)-1-1-1-1-1-1---|


                            D.S. al Coda
  +E  E E E E E E E   +E  E E E E E E E
|-------------------|---------------------||
|-------------------|---------------------||
|-------------------|---------------------||
|-(5)-5-7-5-5-5-7-5-|-(5)-5-7-5-5-5-7-5---||
|-(3)-3-3-3-3-3-3-3-|-(3)-3-3-3-3-3-3-3---||
|-------------------|---------------------||


  &
  Am      G F              C5                  G5
  H.      E E   +H..       E   +E  E E E E E E E   +E  E E E E E E E
|-5-------3-1-|-(1)----------|-------------------|-------------------|
|-5-------3-1-|-(1)----------|-------------------|-------------------|
|-5-------4-2-|-(2)----------|-------------------|-------------------|
|-7-------5-3-|-(3)--------5-|-(5)-5-7-5-5-5-7---|-------------------|
|-7-------5-3-|-(3)--------3-|-(3)-3-3-3-3-3-3-5-|-(5)-5-7-5-5-5-7-5-|
|-5-------3-1-|-(1)----------|-----------------3-|-(3)-3-3-3-3-3-3-3-|


                                       ritardando Q=80         a tempo Q=132
  C    Bb     F    C                                N.C.
                                        >
  H    H      H    H      +W           +W           W          W
|-3----1----|-1----3----|-(3)--------|-(3)--------|----------|------||
|-5----3----|-1----5----|-(5)--------|-(5)--------|----------|------||
|-5----3----|-2----5----|-(5)--------|-(5)--------|----------|------||
|-5----3----|-3----5----|-(5)--------|-(5)--------|----------|------||
|-3----1----|-3----3----|-(3)--------|-(3)--------|----------|------||
|-----------|-1---------|------------|------------|----------|------||


   Outro
    G5            F5                  C5
    E E E E E E E E   +E  E E E E E E E
||------------------|-------------------|
||o-----------------|-------------------|
||------------------|-------------------|
||------------------|-----------------5-|
||o-5-5-7-5-5-5-7-3-|-(3)-3-5-3-3-3-5-3-|
||--3-3-3-3-3-3-3-1-|-(1)-1-1-1-1-1-1---|


  +E  E E E E E E E   +E  E E E E E E E   3x
|-------------------|---------------------||
|-------------------|--------------------o||
|-------------------|---------------------||
|-(5)-5-7-5-5-5-7-5-|-(5)-5-7-5-5-5-7-5---||
|-(3)-3-3-3-3-3-3-3-|-(3)-3-3-3-3-3-3-3--o||
|-------------------|---------------------||
            
Submit corrections

↑ Back to top | Tablatures and chords for acoustic guitar and electric guitar, ukulele, drums are parodies/interpretations of the original songs. You may use it for private study, scholarship, research or language learning purposes only