» » »

White Denim - New Blue Feeling Tabs

Artists:  A B C D E F G H I J K L M N O P Q R S T U V W X Y Z # 

New Blue Feeling Tabs

(ver. 1) Click to play this song!
White Denim
 Rating:
4.3/5 (27 votes)

 New Blue Feeling  lessons Tabs too difficult? Try these video lessons and learn fast
 
                [Intro]

Dm Am   Cm G

e|---------------------------------------------|
B|---------------------------------------------|
G|---9b10b9-7-5----7b8b7-5-4-------------------|   x3&1/2
D|--------------7------------5-----------------|
A|---------------------------------------------|
E|---------------------------------------------|

Second guitar, one octave higher

e|---12b13b12-10-8-----10b11b10-8-7------------|
B|-----------------10---------------8----------|
G|---------------------------------------------|  x1&1/2
D|---------------------------------------------|
A|---------------------------------------------|
E|---------------------------------------------|

   G Am   F(7)
e|--------------------------------------------|
B|---------------------6-10-------------------|
G|--------5-5--------8------------------------|   
D|--5-5-----------10--------------------------|
A|-6-----7-----12-----------------------------|
E|--------------------------------------------|


[Verse]

Bb                         Cm       Gm
Dreamed of a letter from a hospital bed
        Cm              Gm      F
I don't recall what I'd said at all
          Bb                      Cm   Gm 
In case a new blue feeling rushes over me
            Cm       Gm                    F
And all the doctors agree that we've hit a wall


[Chorus] 

Bb                     Cm        Gm
No use in crying dear, save your tears

             Cm       Dm             Gm    C7  F    D7    (D7 can be played a F#m7b5)
Let's try to hide our fears until we go        away into

G 
A place we'll never know until we know it


[Bridge]

Just pick/strum a G-chord until the organ comes inn.

 [Organ plays:     |  Guitar plays:      You could combine these two if you want
  G         Bb  C  |  G          Bb    C
e|----------------------------------------|
B|------------6-5-------------4-3---6-5---|
G|--4-5-7-8-------------------3-3---5-5---|  
D|----------8-----------------------------|
A|----------------------------------------|
E|----------------------------------------|    
  
                              
G          F     G 
   Never a right time
          Bbsus4 Bb  Csus4 C
Never been  re-ady     before

G          F     G 
   Never a right time
          Bbsus4 Bb  Csus4 C    G  F   G  Bbsus4 Bb  Csus4 C
Never been  re-ady     befoooooooooooooooooooooooooooooooooooooore


[Solo]

throughout solo:

G F G Bsus4 Bb Csus4 C 




[Instrumental]

(Intro again)


Dm Am   Cm G
e|---------------------------------------------|
B|---------------------------------------------|
G|---9b10b9-7-5----7b8b7-5-4-------------------|   
D|--------------7------------5-----------------|
A|---------------------------------------------|
E|---------------------------------------------|

Second guitar, one octave higher

e|---12b13b12-10-8-----10b11b10-8-7------------|
B|-----------------10---------------8----------|
G|---------------------------------------------|  
D|---------------------------------------------|
A|---------------------------------------------|
E|---------------------------------------------|

Third guitar comes in:

e|---19b20b19 17----------------|
B|---------------17-------------|
G|------------------17----------|  
D|------------------------------|
A|------------------------------|
E|------------------------------|

Then

   G Am   F(7)
e|---------------------------------------------|
B|----------------------6-10-------------------|
G|---------5-5--------8------------------------|   
D|---5-5-----------10--------------------------|
A|--6-----7-----12-----------------------------|
E|---------------------------------------------|

Second guitar this time


   G Am   F(7)
e|---------------------------------------------|
B|---------------------------------------------|
G|---------5-5---------7--10-------------------|   
D|---5-5--------7-8-10-------------------------|
A|--6-----7------------------------------------|
E|---------------------------------------------|


[Verse]

Bb                 Cm     Gm
How I've loved you all my life
         Cm      Gm        F
You were exactly right all along
   Bb                         Cm         Gm
If this is goodbye, I have to ask you to try
   Cm            Gm         F
To remember that I was once strong


[Chorus]

Bb                     Cm        Gm
No use in crying dear, save your tears
           Cm        Dm             Gm  C7  F   D7  (D7 can be played a F#m7b5)   
And try to hide your fears until we go     away into
G                                       G
A place we'll never know until we know it            
Submit corrections


        New Blue Feeling  lessons Hard to play? Try these video lessons and learn fast New Blue Feeling  lessons
        
↑ Back to top | Tablatures and chords for acoustic guitar and electric guitar, ukulele, drums are parodies/interpretations of the original songs. You may use it for private study, scholarship, research or language learning purposes only