Home » W » Whiskeytown »

Whiskeytown - Inn Town Tabs

Artists:  A B C D E F G H I J K L M N O P Q R S T U V W X Y Z # 

Inn Town Tabs

(ver. 2) Click to play this song!
Whiskeytown
Followed by Fill A

Verses:
	D			            G                   Fill A 	
	Parking Lot, Movie screen, I can't feel anything 
	D			            G	          Fill A 	
	Cigarette, beat up TV, I can't feel anything

The rest is as posted by Rick, this is just to solidify the intro.

Comments, suggestions, gripes, and no depression discussion welcome!

Words and music by: David Ryan Adams & Phil Wandscher

Intro:

e/------------------------------------------------------------------------/				
B/------------3--------3--------3---------3---------3---------------------/
G/---0h2-------2-----0h2---------2-----0h2---------2----------------/      
D/---------0-----------------0-------------------0-----------------------/	                                                
A/----------------------------------------------------------------------/
E/----------------------------------------------------------------------/

 Followed by Fill A:

/-----------------------------------------------/
/----------------------------------------------/
/-----------------------------0-----------------/
/---------------0---0h2---------0------------------------/
/--2---0h2---------------------------------------/
/--3--------------------------------------------/

Do the whole sequence twice; the third time is a bit different:

/------------------------------------------------------3------2-----3---------------------------------------------------/
/--------------3--------------3---------3-------3-----------------------------------------------------------------------/
/---0h2----------2---2------0h2---------2--------------------------------------------------------------------/
/----------0-------------------------0---------------------------------------------------------------------------------/
/--------------------------------------------------------------------------------------------------------------------/
/--------------------------------------------------------------------------------------------------------------------/

Followed by Fill A

Verses:
	D			            G                   Fill A 	
	Parking Lot, Movie screen, I can't feel anything 
	D			            G	          Fill A 	
	Cigarette, beat up TV, I can't feel anything

The rest is as posted by Rick, this is just to solidify the intro.

Comments, suggestions, gripes, and no depression discussion welcome!
            
Submit corrections

↑ Back to top | Tablatures and chords for acoustic guitar and electric guitar, ukulele, drums are parodies/interpretations of the original songs. You may use it for private study, scholarship, research or language learning purposes only