» » »

We The Kings - The Quiet Bass

Artists:  A B C D E F G H I J K L M N O P Q R S T U V W X Y Z # 

The Quiet Bass

(ver. 1) Click to play this song!
We The Kings
 Rating:
4/5 (4 votes)


 The Quiet lessons Tabs too difficult? Try these video lessons and learn fast
 
                -----------------------------------------------------------------------------
                             The Quiet – We the Kings
-----------------------------------------------------------------------------


Tuning: Standard

Wait until second guitar comes in

Pre-Verse (x2)
G|--------------------------------|
D|--------------------------------|
A|----------------44-444-433-333--|
E|22-222-222-222-2----------------|

Verse 1 (x4)                         after 4th time
G|-------------------------------|{-----------------}
D|-------------------------------|{-----------------}
A|---------------444-444-333-333-|{-----------------}
E|22-222-222-222-----------------|{22-2-22~-44-4-44~}

Chorus
G|--------------------------------------------------------------------------|
D|--------------------------------------------------------------------------|
A|44444444-----------------------------44444444-----------------------------|
E|---------66666666-44444444-22222222-----------66666666-4444444444444444---|

G|--------------------------------------------------------------------------|
D|--------------------------------------------------------------------------|
A|44444444----------------------------6666666666666666----------------------|
E|---------66666666-44444444-22222222------------------22222222-4~----------|

Pre-Verse (x1)
G|--------------------------------|
D|--------------------------------|
A|----------------44-444-433-333--|
E|22-222-222-222-2----------------|

Verse 2 (x4)                         after 4th time
G|-------------------------------|{-----------------}
D|-------------------------------|{-----------------}
A|---------------444-444-333-333-|{-----------------}
E|22-222-222-222-----------------|{22-2-22~-44-4-44~}

Chorus 
G|--------------------------------------------------------------------------|
D|--------------------------------------------------------------------------|
A|44444444-----------------------------44444444-----------------------------|
E|---------66666666-44444444-22222222-----------66666666-4444444444444444---|

G|--------------------------------------------------------------------------|
D|--------------------------------------------------------------------------|
A|44444444----------------------------6666666666666666----------------------|
E|---------66666666-44444444-22222222------------------22222222-44444444----|

Bridge
G|----------------------------------------------------------------|
D|----------------------------------------------------------------|
A|----------------------------------------------------------------|
E|224444-664444-224444-664444-224444-664444-22-2-22~-44444444-----|

Chorus 
G|--------------------------------------------------------------------------|
D|--------------------------------------------------------------------------|
A|44444444-----------------------------44444444-----------------------------|
E|---------66666666-44444444-22222222-----------66666666-4444444444444444---|

G|--------------------------------------------------------------------------|
D|--------------------------------------------------------------------------|
A|44444444----------------------------6666666666666666----------------------|
E|---------66666666-44444444-22222222------------------22222222-4~----------|

Pre-Verse (x2)                      after 2nd time)
G|--------------------------------|{------------}
D|--------------------------------|{------------}
A|----------------44-444-433-333--|{------------}
E|22-222-222-222-2----------------|{2~----------}


| /  slide up
| \  slide down
| h  hammer-on
| p  pull-off
| ~  let ring
| +  harmonic
| x  Mute note
=============================================================================
            
Submit corrections



        The Quiet lessons Hard to play? Try these video lessons and learn fast The Quiet lessons
        
↑ Back to top | Tablatures and chords for acoustic guitar and electric guitar, ukulele, drums are parodies/interpretations of the original songs. You may use it for private study, scholarship, research or language learning purposes only