» » »

Westernhagen - Hier In Der Kneipe Tabs

Artists:  A B C D E F G H I J K L M N O P Q R S T U V W X Y Z # 

Hier In Der Kneipe Tabs

(ver. 1) Click to play this song!
Westernhagen
 Rating:
4/5 (4 votes)

 Hier In Der Kneipe lessons Tabs too difficult? Try these video lessons and learn fast
 
                

Westernhagen  

Hier in der Kneipe fuehl ich mich frei


Tuning: Standard  E A D G B e

The second Guitar are strumming the Verse between the Intro


Intro:  

e||------------------------------------|
H||--8h10p8----------------------------|
G||-----------9—9—9-9\7-5--9-----------|
D||------------------------------------|
A||------------------------------------|
E||------------------------------------|


e||------------------------------------|
H||--8h10p8----------------------------|
G||-----------9—9—9-9\7-5--7-----------|
D||------------------------------------|
A||------------------------------------|
E||------------------------------------|


e||------------------------------------|
H||--8h10p8----------------6-----------|
G||-----------9—9—9-9\7-5--------------|
D||------------------------------------|
A||------------------------------------|
E||------------------------------------|


e||------------8-----------------------|
H||--8/9—-8/9--------------------------|
G||----------------9/7--7--5-----------|
D||------------------------------------|
A||------------------------------------|
E||------------------------------------|
E||------------------------------------|




C
Ich bin aufgewacht in irgend 'nem Bett

C                                G
Die Frau neben mir die laechelte nett

C                                    F
Ich wusste nicht mehr was ich ihr versprach

C                 G                 C
Scheiß Alkohol was hab ich wieder gemacht





Der Erich, der kann jede Menge vertragen
Ich trink' ja nur Bier wegen meinem Magen
Und hab  ich mein Level dann werde ich frech
Dann ist mir jede, fast jede recht


Du hast leider Recht ich tauge zu nichts
Ein anständiger Mann sitzt am Abendbrottisch
Ich komme fast nie an der Kneipe vorbei
Nur hier in der Kneipe fuehl' ich mich frei


Nur hier in der Kneipe fuehl' ich mich frei
Nur hier in der Kneipe fuehl' ich mich frei
Und hab  ich mein Level dann werde ich frech
dann ist mir jede, fast jede recht  


Na,na,na,na      

and so on with the na na
in sync with the Verse :)
            
Submit corrections


        Hier In Der Kneipe lessons Hard to play? Try these video lessons and learn fast Hier In Der Kneipe lessons
        
↑ Back to top | Tablatures and chords for acoustic guitar and electric guitar, ukulele, drums are parodies/interpretations of the original songs. You may use it for private study, scholarship, research or language learning purposes only